tablaturas, partituras y acordes para guitarra
Busca por banda/artista:
 
y/o título de la canción:
A B C D E F G H I J K L M N O P Q R S T U V W X Y Z 0 1 2 3 4 5 6 7 8 9 / Top 100 tabs
Categorías
Usuarios
usuario:
Darse de alta
password:
Artistas más visitados
Publicidad
TOP acordes y tablaturas de Bacilos


Estás en: Inicio > Letra B > Acordes y tablaturas de Bacilos > Cuestion de Madera
Cuestion de Madera
de Bacilos
Puntúa este acorde/tab:      
(0.8/5)
Reportar este acorde/tab
  Añadir a tus favoritos
  Imprimir
Intro

                           C                           
|------------------------------------------------------
|-----1-----1-----1-----1-----1-----1-----1-----1-----1
|----0-----0-----0-----0-----0-----0-----0-----0-----0-
|-0h2---0h2---0h2---0h2---0h2---0h2---0h2---0h2---0h2--
|------------------------------------------------------
|------------------------------------------------------
                                               (bis)
  C         Em      Am                F       C
-------------------------------------------------------
---------1p0-----1p0--------------------------------1p0
--------0-------0----------------------------------0---
-------2-------2-------2h3-2---2h3-2-------2------2----
---0/3-------2-------0---------------3---3----0/3------
-----------------------------1---------1---------------
  Em
-------------------------------------------------------
-------1p0---------------------------------------------
------0------------------------------------------------
-----2-------------------------------------------------
---2---------------------------------------------------
-------------------------------------------------------
                                                (bis)
C                   Em           Am
 Despúes de un buen rato de esperar
             F              
 que desea usted señor
                C     Em    
 que voy a querer? pense.
C         Em           Am
 Una mesa cerca del balcón,
                 F               
 sólo se puede pasar,
          C          Em   
 si va usted a comer.
C          Em            Am 
 Pobre camarero en realidad 
           F                  C           Em
 su reflejo veo en mi piel, y pierdo valor 
C            Em               Am               
 Es la vieja historia de este mundo colonial
          F              C            Em   
 siga usted patrón, que le sirvo hoy?
   Am             F        
*Y asi van tantos años
    Dm          G             
 y asi tanta mediocridad 
    Am             F              
 haciendo nuestras vidas
      C                          
 al motero confundido 
           G
 de una Europa que aqui nunca pudo ser.
 Em                      Am     
 Es cuestión de madera ooooh
      F                         
 la fibra del corazón
          C                       G
 de las ganas en los huesos por seguir
 Em                      Am            
 es cuestión de madera ooooh
     C                            G 
 siga usted patrón, que le sirvo hoy?

 Intro
C            Em             Am                 
 No puedo ni quiero convencer 
                      F            
 al camarero de que diablos soy 
       C            Em                   
 me paresco tanto a el
C             Em                  Am         
 nunca va a entender nunca va a comprender
                       F          C            Em 
 que su sangre es del color, de un nuevo amanecer

*Y asi......
 
 Intro

*Y asi......
		   
AcordesyTabs.com © 2008 Acordes y Tablaturas para guitarra. Tabs and Chords for guitar. Aviso Legal - Contacto
El uso de este sitio está sujeto a la aceptación de los términos y condiciones (34 usuarios online)