tablaturas, partituras y acordes para guitarra
Busca por banda/artista:
 
y/o título de la canción:
A B C D E F G H I J K L M N O P Q R S T U V W X Y Z 0 1 2 3 4 5 6 7 8 9 / Top 100 tabs
Categorías
Usuarios
usuario:
Darse de alta
password:
Artistas más visitados
Publicidad
TOP acordes y tablaturas de Chayanne


Estás en: Inicio > Letra C > Acordes y tablaturas de Chayanne > Cuidarte el Alma
Cuidarte el Alma
de Chayanne
Puntúa este acorde/tab:      
(0.7/5)
Reportar este acorde/tab
  Añadir a tus favoritos
  Imprimir
Hola
Mando el tab de esta cancion ya que está mas completo
que el otro que ya estaba en el ATAME, tambien corregí
los acordes que no sonaban bien.
Debo mencionar que el otro tab de esta cancion es muy
bueno, solo que con unos pequeños errores.

Cualquier comentario o corrección a mi mail.


Acordes:
    Dm    A#    C     F    Gm    C/C#   Dm*
e*--5--*--6--*--3--*--5--*--3--*--x--*--5--*
B*--6--*--6--*--5--*--6--*--3--*--5--*--6--*
G*--7--*--7--*--5--*--5--*--3--*--5--*--5--*
D*--7--*--8--*--5--*--7--*--5--*--5--*--5--*
A*--5--*--8--*--3--*--8--*--5--*--4--*--7--*
E*--x--*--6--*--x--*--x--*--3--*--x--*--x--*


Intro:
           Dm     A#              C           F         Dm        A#
e*---------5---5-5h6---6-6-5---------------8-8h10--6-8--5-6-----------
B*---5-6h8-------------------8p6-6h8---6-8-------------------8-10-6---
G*-7------------------------------------------------------------------
        Gm               C                         Dm
----------------------13-13---12h13p12----12---------10----*
---8h10-8----12-13-15------------------15-----------10-----*
---------------------------------------------------10------*

          A#             C
Sólo si pudiera estar contigo
       F               A#
Tu dormida entre mis brazos
Gm                C
Y mirarte en el silencio

               Dm
e*-----------------------*
B*-5-6-8-8-6-5-5h6-------*
G*-----------------7-----*

           A#       C
Sólo si pudiera dibujarte
      C/C#         Dm
Una escena de mis sueños
       A#              C      Dm - Dm* - F
Donde siempre estás presente
            A#     C      F       A#      C
Con solo tenerte aquí, decirte lo que yo siento

e*-12-12h13-12-------------------*
B*-------------15-13-12-13-------*
G*-------------------------14----*

Coro:
                    Dm                A#
Es que me gusta tu cara, me gusta tu pelo
              C                    F
Soñar con tu voz cuando dices “te quiero”
             A#                     Gm
Me gusta abrazarte, perderme en tu aroma
           A#               A
Poder encontrar en tus ojos el cielo
             Dm                A#
Me gusta tu risa, me gusta tu boca
           C                        F
Me gusta creer que por mi tu estás loca
                 A#                 Gm
Como quiero que sientas conmigo la calma
           A#            A             Dm
Y cuando llegue la noche, cuidarte el alma

          A#           C                  F            A#     Gm
e*---5-5-5h6----------------------5h6p5---5----5-5-6-8-8-6-6-5-----
B*--6---------------5-6p5---5-6-8-------8----------------------8---
G*-7------------5-7-------7----------------------------------------
         C                    Dm
-------------------------------------*
-----5-6-6-5-5-----------------------*
---7-----------7-7--5-5--0--2p0------*
--------------------------------3----*
           A#            C
Como despertar en la distancia
        F              A#
Sin tu piel junto a la mía
 Gm              C
Amando tú fotografía
Dm              A#           C
Podemos mandar besos con el viento
          C/C#           Dm
Mirar la luna al mismo tiempo
  A#           C   Dm - Dm* - F
Contar un día más
           A#      C  F            A#       C
Con solo tenerte aquí, no sabes lo que me faltas


Coro:
                    Dm                A#
Es que me gusta tu cara, me gusta tu pelo
              C                    F
Soñar con tu voz cuando dices “te quiero”
             A#                     Gm
Me gusta abrazarte, perderme en tu aroma
           A#               A
Poder encontrar en tus ojos el cielo
             Dm                A#
Me gusta tu risa, me gusta tu boca
           C                        F
Me gusta creer que por mi tu estás loca
                 A#                 Gm
Como quiero que sientas conmigo la calma
           A#            A             Dm
Y cuando llegue la noche, cuidarte el alma

               F       A#       C         F
e*-5-----5-6---8-5-----10-8-6-5-5-----5-6-8----
B*---6-8-----------8-6------------8------------
G*---------------------------------------------

                 A#                   F
Y a pesar de todo, y sin darnos cuenta
                       A#           A
Estaré en tu puerta diciéndote otra vez


Coro: sube medio tono
                   D#m               B
Es que me gusta tu cara, me gusta tu pelo
             C#                    F#
Soñar con tu voz cuando dices “te quiero”
             B                      G#m
Me gusta abrazarte, perderme en tu aroma
            B               A#
Poder encontrar en tus ojos el cielo
            D#m               B
Me gusta tu risa, me gusta tu boca
           C#                       F#
Me gusta creer que por mi tu estás loca
                  B                 G#m
Como quiero que sientas conmigo la calma
            B                  A#            D#m
Y cuando llegue la noche,        cuidarte el alma
           B         C#    F#             B       G#m         B
e*---6--6-6h7--------------6----7p6-------------------------------
B*--7-----------6-7-7s9--9----------9-7-6-------------------------
G*-8--------------------------------------8----8-6----------------
D*-------------------------------------------------9--9-9-8-6-8---

 A#          D#m
-----------------------------6s11-------11----*
---6-6-6h7-6-------------6-7-----------11-----*
-------------8-------7-8--------------11------*
----------------------------------------------*
		   
AcordesyTabs.com © 2008 Acordes y Tablaturas para guitarra. Tabs and Chords for guitar. Aviso Legal - Contacto
El uso de este sitio está sujeto a la aceptación de los términos y condiciones (35 usuarios online)