tablaturas, partituras y acordes para guitarra
Busca por banda/artista:
 
y/o título de la canción:
A B C D E F G H I J K L M N O P Q R S T U V W X Y Z 0 1 2 3 4 5 6 7 8 9 / Top 100 tabs
Categorías
Usuarios
usuario:
Darse de alta
password:
Artistas más visitados
Publicidad
TOP acordes y tablaturas de Dave Matthews Band


40 4
de Dave Matthews Band
Puntúa este acorde/tab:      
(0.6/5)
Reportar este acorde/tab
  Añadir a tus favoritos
  Imprimir
Dave Matthews Band- #40
From: Listener Suported

Thank to Jeff Adams who tought me this song.

this is mostly correct you might have to listen to the song to
get the tempo.

INTRO
   C
E-------0--------
A-3-----------2-0
D-----2-----2----
G---0-----0------
B----------------
E----------------

E-1---------------3-
A-------------------
D-2---------------2-
G-0-- Strum ------0-  Strum
B-1---------------1-
E-0---------------0-            Go back to intro and repeat as needed


Chords

E---2-3-----2-------
A-----2-----2---3-3-
D-------2---4-2-5-5-
G-2-----2-2-4-2---5-
B-3---2-2-3-3-2-----
E-2---2---2-2-------
 then go into the intro

If you have any questions you can email me at akpride04@hotmail.com
		   
AcordesyTabs.com © 2008 Acordes y Tablaturas para guitarra. Tabs and Chords for guitar. Aviso Legal - Contacto
El uso de este sitio está sujeto a la aceptación de los términos y condiciones (33 usuarios online)