tablaturas, partituras y acordes para guitarra
Busca por banda/artista:
 
y/o título de la canción:
A B C D E F G H I J K L M N O P Q R S T U V W X Y Z 0 1 2 3 4 5 6 7 8 9 / Top 100 tabs
Categorías
Usuarios
usuario:
Darse de alta
password:
Artistas más visitados
Publicidad
TOP acordes y tablaturas de Dave Matthews Band


40
de Dave Matthews Band
Puntúa este acorde/tab:      
(0.1/5)
Reportar este acorde/tab
  Añadir a tus favoritos
  Imprimir
Tabbed from the Listener Supported video.
Intro
e-----------------------
B------1-------1--1--1--
G-----------------x--x--
D----2-----0------2--2--
A--3-----2--------x--x--
E-----------------1--3--
Verse(Strumming)
e------------------
B--1-----1---1--1--
G------------x--x--
D--2-----0---2--2--
A--3-----2---x--x--
E------------1--3--

Chorus(I guess you could call it that)
e--------2--3---2--2--3-----------
B--1--1--3-(3)--3--3-(3)-2--3-----
G--------2------2--2-----2--4--4--
D--2--0--0------0--0-----2--4--2--
A--3--2-----2---------2--0--2-----
E--------2--3------2--3--------4--

"Always..."
e------------------------------
B-------------1-----1----1--1--
G--4-5-------------------x--x--
D--4-5------2-----0------2--2--
A--3-3----3-----2--------x--x--
E------------------------1--3--

Ending
e-------
B-------
G--4-5--
D--4-5--
A--3-3--
E-------
		   
AcordesyTabs.com © 2008 Acordes y Tablaturas para guitarra. Tabs and Chords for guitar. Aviso Legal - Contacto
El uso de este sitio está sujeto a la aceptación de los términos y condiciones (33 usuarios online)