tablaturas, partituras y acordes para guitarra
Busca por banda/artista:
 
y/o título de la canción:
A B C D E F G H I J K L M N O P Q R S T U V W X Y Z 0 1 2 3 4 5 6 7 8 9 / Top 100 tabs
Categorías
Usuarios
usuario:
Darse de alta
password:
Artistas más visitados
Publicidad
TOP acordes y tablaturas de Dave Matthews Band


41 2
de Dave Matthews Band
Puntúa este acorde/tab:      
(0.4/5)
Reportar este acorde/tab
  Añadir a tus favoritos
  Imprimir
#41
Dave Matthews Band
tabbed by Moonsoon3@aol.com

there have been a bunch of tabs on this song that i've found floating around,
and each seems to have something wrong with it.  I believe this is the correct 
way to play it, based on seeing dmb live and watching dave's hands.

INTRO:
(mostly, it's a random arpeggio.  This is based on Live at Luther College)

 Am        Bm  Em          D*
|--------------|---------|-------3~--|-(0~)----------------|
|-----1~-------|-----3~--|-------0~--|--3-3p0-0---3-3p0-0--|
|--------2-----|---------|-------0~--|--0-0---0---0-0---0--|
|---2------2---|---4-----|----(2)----|--4-----4---4-----4--|
|-0----------0-|-2-------|---2-------|--5-----5---5-----5--|
|--------------|---------|-0---------|---------------------|

VERSE:
these chords are variations of the Am-Bm-Em-D*.  the top strings play a G5, 
and the lower strings play the root of the implied chord: A, B, E, D.  the way
to do this is to have your ring finger and pinky on the G and B strings.  for th
mute and fret the E string on 5 with your pointer finger.  Second chord: fret wi
mute A and D strings with pointer finger.  Third chord: fret A on 7, and mute D 
middle finger, use first finger to mute E string.  Fourth chord: Fret A and mute
first finger, mute E with middle finger.  For all of these, the high e string sh
be muted by any of your fingers coming across to the lower strings.

|----x--|----x--|----x--|----x--|
|----8--|----8--|----8--|----8--|
|----7--|----7--|----7--|----7--|
|----x--|----x--|----x--|----x--|
|----x--|----x--|-7--7--|-5--5--|
|-5--5--|-7--7--|-------|-------|

Come and see, i swear by now I'm playing time, against my troubles, oh,
I'm coming slow but speeding
Do you wish for a dance and while I'm in the front,
my play on time is won,
oh but the difficulty is coming, here

CHORUS:
|G|D|C|C| There are a million ways to play this.  I do:

  G   D    C   C
--x---x----x-------
--x---x----x-------
--4-/-11---9---9---
--x---x----x---x---
--2-/-9----7---7---
--3-/-10---8---8---

I will go in this way, and find my own way out
I won't ask you to stay, oh but i'm coming to much more

VERSE:
me, all at once the ghosts come back, reeling in you now
oh, what if they came down crushing?
used to be, you and me play for all of the lonliness
that nobody notices now
oh, begging slow i'm coming here....only waiting
i wanted to play, i wanted to stay, i wanted to love you
and only this time, and only tomorrow leads my way
i'm coming waltzing back and pushing into your head, please

CHORUS:
I wouldn't pass this by, oh i wouldn't take more than i need
what sort of man rolls by? i would bring him water
why won't you ever be glad, it melts into wonder,
i came in praying for you
why won't you run into rain and play
let the tears splash all over you.

SOLOS

OUTRO:
Dave's outro solo is a variation/improv around these chord formations:

--10--8--7--5--5-----------------------------
--8---8--8--8--7-----------------------------
--7---7--7--7--7-----------------------------
---------------------------------------------
---------------------------------------------
---------------------------------------------

song ends on Em.
		   
AcordesyTabs.com © 2008 Acordes y Tablaturas para guitarra. Tabs and Chords for guitar. Aviso Legal - Contacto
El uso de este sitio está sujeto a la aceptación de los términos y condiciones (42 usuarios online)