tablaturas, partituras y acordes para guitarra
Busca por banda/artista:
 
y/o título de la canción:
A B C D E F G H I J K L M N O P Q R S T U V W X Y Z 0 1 2 3 4 5 6 7 8 9 / Top 100 tabs
Categorías
Usuarios
usuario:
Darse de alta
password:
Artistas más visitados
Publicidad
TOP acordes y tablaturas de Dave Matthews Band


41 Violin Solo
de Dave Matthews Band
Puntúa este acorde/tab:      
(0.7/5)
Reportar este acorde/tab
  Añadir a tus favoritos
  Imprimir
Submitted by:
Scott Erickson

some of the rythms are tricky, listen to the cd for the timing

|-violin
--------------------------------------------------------------------------------
--12-12-12-12-10----12-12-12-12-10----12-12-12-12---12---------12---12----------
---------------------------------------------------------9---9-----------7-7h9--
--------------------------------------------------------------------------------
--------------------------------------------------------------------------------
--------------------------------------------------------------------------------

--------------------------------------------10-10-10-101010-10-10-1010101010-10-
-13-12-10-8--8---7-8-7--12-10-12-10---------------------------------------------
---------------9---------------------7-9-7--------------------------------------
--------------------------------------------------------------------------------
--------------------------------------------------------------------------------
--------------------------------------------------------------------------------

--------------------------------------------------------------------------------
------------------------------------------------------10--12--------10-12-10----
-7-9-7---9-11-12-11-----9-11-12-11-----9-11-12-11--12----------11-12----------12
--------------------12-------------12-------------------------------------------
--------------------------------------------------------------------------------
--------------------------------------------------------------------------------
--------------------------------------------------------------------------------

------------------------------------10--10--10-8-7-8----------------------------
---------------------------------12------------------7--5-7-8--8-7-8-10----5-7-8
-11-9--11--11--11-9-11-9--9-11-9-----------------------------------------7------
--------------------------------------------------------------------------------
--------------------------------------------------------------------------------
--------------------------------------------------------------------------------
                           |-flute 
--------7--------------------------------------------------------------12-------
-7-8-10----10-8-7-8-7-----10-12-10-8---10-12-10-8--10--8-10---15-13-12----------
----------------------9-7-7-9---------------------------------------------12-11-
--------------------------------------------------------------------------------
--------------------------------------------------------------------------------
--------------------------------------------------------------------------------
             |-violin
-----------------------------10---------------------10--8-10-8--7-8--7-8-7------
-12-10-8---------------10-12----12-10-12-10--------------------------------10--8
---------9-----9-11-12----------------------12-11-------------------------------
-------------9------------------------------------------------------------------
--------------------------------------------------------------------------------
--------------------------------------------------------------------------------

questions comments:
axeman1033@aol.com
		   
AcordesyTabs.com © 2008 Acordes y Tablaturas para guitarra. Tabs and Chords for guitar. Aviso Legal - Contacto
El uso de este sitio está sujeto a la aceptación de los términos y condiciones (15 usuarios online)