tablaturas, partituras y acordes para guitarra
Busca por banda/artista:
 
y/o título de la canción:
A B C D E F G H I J K L M N O P Q R S T U V W X Y Z 0 1 2 3 4 5 6 7 8 9 / Top 100 tabs
Categorías
Usuarios
usuario:
Darse de alta
password:
Artistas más visitados
Publicidad
TOP acordes y tablaturas de Dave Matthews Band


41
de Dave Matthews Band
Puntúa este acorde/tab:      
(0.4/5)
Reportar este acorde/tab
  Añadir a tus favoritos
  Imprimir
Intro to 41
-Am-x022100
-B-x24430
-E-075780
-D-x54030

Most the song

E(10)(10)(10)(10)
B—8---8---8---8
G—7---7---7---7
D--------------
A---------7---5
E-5---7--------

Refrain-
G-320033
F/D-200232
C-x32010----------or 8/10/10/7/xx

That’s mainly the song- anyone could have told you that- but I just wanted to th

E----7-------7-8-7------7-----------------7-8-7/(slide)10(pick)(slide)8
B-8---10-8-7------10-10—-8-10-7-8--------------------------------------
G—-7-------------------------------9-7---------------------------------
D----------------------------------------------------------------------
A----------------------------------------------------------------------
E----------------------------------------------------------------------

E-7------------------------------------7------7----------7---------7
B---7-7-7-7-10-7-7-10-7----10-10-10-10---10-10---10—8-10---10-8-10-
G-------------------------------------------------------------------
D-------------------------------------------------------------------
A-------------------------------------------------------------------
E-------------------------------------------------------------------

E------7/8-8-7----------------
B-10-8----------8-------------
G-----------------------------
D-----------------------------
A-----------------------------
E-----------------------------

Appreciate that because it sucks to tab stuff like that out- 

Here’s the thing he does with the 15+ 41’s- it’s really tight- usually it’s Bela





E---------------------------I--------------------7--------I Repeat 2x’s
B-0---------7-8--------0----I-0-----0-----7-8-10----------I
G—-7-9-9-7-9----9-7-7-7—7---I—-7-9----7-9----------9-9-7-9I
D---------------------------I-----------------------------I  PART 1
A---------------------------I-----------------------------I
E---------------------------I-----------------------------I

E---------------------------------------------------------
B---------------------------------------------7-8-7-------
G---------9-7---------------0-------------7-9-------9-7---  
D-7-9-7-9----9-7-7-9-10-9-7-------9-9-7-9----------------9
A-------------------------------7-------------------------
E---------------------------------------------------------

E-------7-9-10-9-7-------------------------7--------
B-----8-----------10-7—0-----0-----7-8-10-----------
G-9-9--------------------7-9---7-9-----------9-9-7-9
D--------------------------------------------------- Part 2
A---------------------------------------------------
E---------------------------------------------------

This took me a couple weeks to get completely streight- hope it saved you time- 
                                                                Crushme41dmb@aol
                                                                   IM Me sometim











		   
AcordesyTabs.com © 2008 Acordes y Tablaturas para guitarra. Tabs and Chords for guitar. Aviso Legal - Contacto
El uso de este sitio está sujeto a la aceptación de los términos y condiciones (26 usuarios online)