tablaturas, partituras y acordes para guitarra
Busca por banda/artista:
 
y/o título de la canción:
A B C D E F G H I J K L M N O P Q R S T U V W X Y Z 0 1 2 3 4 5 6 7 8 9 / Top 100 tabs
Categorías
Usuarios
usuario:
Darse de alta
password:
Artistas más visitados
Publicidad
TOP acordes y tablaturas de Stereophonics


Estás en: Inicio > Letra S > Acordes y tablaturas de Stereophonics > Bartender and the thief
Bartender and the thief
de Stereophonics
Puntúa este acorde/tab:      
(0.3/5)
Reportar este acorde/tab
  Añadir a tus favoritos
  Imprimir


stereophonics

> the bartender and the thief


Standard Tunings
F5#11 = 1 3 3 4 x x
B5 = 6 8 8 x x x
G5 = 3 5 5 x x x
Intro
d----5-5-5-5-5-5-5-3-5-3-3------
a----5-5-5-5-5-5-5-3-5-3-3------
e----3-3-3-3-3-3-3-1-3-1-1------
 
Verse
F5#11---------------------------------------------------
When you think about it he's watching every word you say
Riff 1
d--------------------------------
a---5-5-5-8h5-5-8h5-5-5---3-5-3-- 2 times
e--------------------------------
Pre Chorus
B5-----G5----B5----G5-----B5---G5 Riff 2
Long diggin' Gone fishin' Love drinkin'
Riff 2
D--8h5-5-8h5-5-8h5-5-8h5-5-8h5-5-5----
 
Chorus
----The bartender and the thief are lovers
e---------------------------------------------
b-------3--3----3--3---3----------------------
g-------2--2----2--2---2----------------------
d---------------------------5--5--5--7--5-----
a---------------------------5--5--5--5--5-----
e---------------------------3--3--3--3--3-----
 
Solo
e--------------------------
b--6--6---5---3--3---------
g--4--4---4---4--4---------
d--3--3---3---3--3---------


		   
AcordesyTabs.com © 2008 Acordes y Tablaturas para guitarra. Tabs and Chords for guitar. Aviso Legal - Contacto
El uso de este sitio está sujeto a la aceptación de los términos y condiciones (115 usuarios online)