tablaturas, partituras y acordes para guitarra
Busca por banda/artista:
 
y/o título de la canción:
A B C D E F G H I J K L M N O P Q R S T U V W X Y Z 0 1 2 3 4 5 6 7 8 9 / Top 100 tabs
Categorías
Usuarios
usuario:
Darse de alta
password:
Artistas más visitados
Publicidad
TOP acordes y tablaturas de Dave Matthews Band


Estás en: Inicio > Letra D > Acordes y tablaturas de Dave Matthews Band > All Along The Watchtower Live
All Along The Watchtower Live
de Dave Matthews Band
Puntúa este acorde/tab:      
(0.5/5)
Reportar este acorde/tab
  Añadir a tus favoritos
  Imprimir
Song-All Along The Watchtower(Live)
Artist-Dave Matthews Band
*Standard Tuning*
*Tabbed By mAsZ1dAh*
-----------------------------------------------------------------------
**This Is Just From Memory,So It's Not 100% Accurate**
-----------------------------------------------------------------------
Intro/Verse-
e|---------------------------------|
B|---------------------------------|
G|---------------------------------|
D|----------------------3----------|
A|----------------------3----------|
E|-5--5--0--3--3--0--1--1--0--1--3-|

Chorus-
e|---------------------------------|
B|---------------------------------|
G|---------------------------------|
D|-7--7--5--5--5--3--3--3--3--3--3-|
A|-7--7--5--5--5--1--1--1--1--1--1-|
E|-5--5--3--3--3--1--1--1--1--1--1-|

****Thats All I HAVE So Far****
		   
AcordesyTabs.com © 2008 Acordes y Tablaturas para guitarra. Tabs and Chords for guitar. Aviso Legal - Contacto
El uso de este sitio está sujeto a la aceptación de los términos y condiciones (20 usuarios online)