tablaturas, partituras y acordes para guitarra
Busca por banda/artista:
 
y/o título de la canción:
A B C D E F G H I J K L M N O P Q R S T U V W X Y Z 0 1 2 3 4 5 6 7 8 9 / Top 100 tabs
Categorías
Usuarios
usuario:
Darse de alta
password:
Artistas más visitados
Publicidad
TOP acordes y tablaturas de Dave Matthews Band


Estás en: Inicio > Letra D > Acordes y tablaturas de Dave Matthews Band > All Along The Watchtower Live
All Along The Watchtower Live
de Dave Matthews Band
Puntúa este acorde/tab:      
(0.2/5)
Reportar este acorde/tab
  Añadir a tus favoritos
  Imprimir
All Along The Watchtower
Live at Woodstock '99


This is an awsome song that Dave covered from, though many poeple 
dont know, Bob Dilan.

Intro
E-----------------------------------------------
B-----------------------------------------------
G--------------------------------x-x-x-x--------
D--------------------------------x-x-x-x--------
A--------------------------------x-x-x-x--------
E--/5---5---0--3--0--3--0--1----x-x-x-x--1---3-

Middle
     Am              G            F            G
E----(0)(0)(0)----------------(1)(1)(1)--------------
B-----1--1--1----(3)(3)(3)----(1)(1)(1)----(3)(3)(3)-
G-----2--2--2-----0--0--0------2--2--2------0--0--0--
D-----2--2--2-----0--0--0------3--3--3------0--0--0--
A--0--------------2--2--2------3--3--3------2--2--2--
E--------------3------------1------------3-----------

End      Just Jam
   Am    G    F    G
E- -0-  -3-  -1-  -3-
B- -1-  -3-  -1-  -3-            remember to use inprovision
G- -2-  -0-  -2-  -0-            thats what dave is best at
D- -2-  -0-  -2-  -0-
A- -0-  -2-  -3-  -2-
E- -3-  -1-  -3-  -3-

Anything u want me to fix, battlesman89@yahoo.com
		   
AcordesyTabs.com © 2008 Acordes y Tablaturas para guitarra. Tabs and Chords for guitar. Aviso Legal - Contacto
El uso de este sitio está sujeto a la aceptación de los términos y condiciones (31 usuarios online)