tablaturas, partituras y acordes para guitarra
Busca por banda/artista:
 
y/o título de la canción:
A B C D E F G H I J K L M N O P Q R S T U V W X Y Z 0 1 2 3 4 5 6 7 8 9 / Top 100 tabs
Categorías
Usuarios
usuario:
Darse de alta
password:
Artistas más visitados
Publicidad
TOP acordes y tablaturas de Dave Matthews Band


Angel
de Dave Matthews Band
Puntúa este acorde/tab:      
(0.1/5)
Reportar este acorde/tab
  Añadir a tus favoritos
  Imprimir
Dave Matthews Band
Angel

Tabbed by – Jim Palermo
            JimiP526@hotmail.com

The hammers in the main riff are done very
quickly, it may take a while to get used to


Main riff:

---------------------------------------------------------------------
-------4-------------------------------------------------------------
-------4----------4---------------------1-----------1----------1-----
--4h6-------------4----x----x-----------2---x---x---2---x---x--2-----
-----------4h6----4----x----x---2h4-----2---x---x---2---x---x--2-----
-----------------------x----x-----------0---x---x---0---x---x--0-----


This is the other line that is mixed
into the verses:
I do not show the strumming, just the chords

----------------------------------------
----------------------------------------
----3------------------1----------------
----4------------------2----------------
----4------------------2----------------
----2------------------0----------------




Chorus riff
Again no strumming, just chords

---------------------------------------------------
---------------------------------------------------
----6----------6-----------1-----8----------1------
----6-----4----6-----4-----2-----8-----4----2------
----4-----4----4-----4-----2-----6-----4----2------
----------2----------2-----0-----------2----0------



Lyrics:

I call you up
You pick up
You call my bluff
On the cards of love
You hold too close
Your hands to your chest
I can't read your eyes
But I confess
It's lonely far from you
Even when you're right by me
It's only why I wait for you
To take my hand 

Why do I beg like a child for your candy?
Why do I run after you like I do, I love you
Whatever you are, I swear   
You'll be my angel
You...

I play my cards
Best I can
But I lose my luck
When you're not here
My darling heart
Won't you please give in
I may be strong
But I want you back again

When you're not here
Love it's hard to pretend
It's all alright
Again
When you're not here
It's hard to pretend
It's all alright…still

Why do I beg like a child for your candy?
Why do I run after you like I do, I love you
Whatever you are,  I swear    
You'll be my angel
You...

Watch the deck
Count your cards
Makes no sense
That I'm always losing
When you're gone

Why do I beg like a child for your candy?
Why do I run after you like I do, I love you
Whatever you are, I swear  
You'll be my angel
You...

		   
AcordesyTabs.com © 2008 Acordes y Tablaturas para guitarra. Tabs and Chords for guitar. Aviso Legal - Contacto
El uso de este sitio está sujeto a la aceptación de los términos y condiciones (31 usuarios online)