tablaturas, partituras y acordes para guitarra
Busca por banda/artista:
 
y/o título de la canción:
A B C D E F G H I J K L M N O P Q R S T U V W X Y Z 0 1 2 3 4 5 6 7 8 9 / Top 100 tabs
Categorías
Usuarios
usuario:
Darse de alta
password:
Artistas más visitados
Publicidad
TOP acordes y tablaturas de Dave Matthews Band


Angel
de Dave Matthews Band
Puntúa este acorde/tab:      
(0.7/5)
Reportar este acorde/tab
  Añadir a tus favoritos
  Imprimir
song -angel
band -dave mathews band
album-everyday

intro/verse
------------------x--2----
------------------x--2----
-------4----------x--3--1-
--5/6--4--4/6--4--x--4--2-
--5/6-----4/6--4--x--4--2-
------------------x--2--0-


"when your not here..."
--2------------------------
--2------------------------
--2-------1----------------
--4-(x8)--2--(x8)----------
--4-------2----------------
--2-------0----------------

chorus

"why do i..."
-----------2-----------
--6--------2-----------
--6--------3-----------
--4--(x8)--4--(x8)-----
-----------4-----------
-----------2-----------

"wherever you are"
-----------------------
-----------------------
--5--------------------
--5--(x8)--------------
--3--------------------
-----------------------

"you'll be my angel"
-----------------------
--2--------------------
--2-------1------------
--2-(x8)--2-(x8)-------
----------2------------
----------0------------

it may not be perfect but it sounds alright
email me if u have ne questions 
pimpbyblud32@aol.com

		   
AcordesyTabs.com © 2008 Acordes y Tablaturas para guitarra. Tabs and Chords for guitar. Aviso Legal - Contacto
El uso de este sitio está sujeto a la aceptación de los términos y condiciones (30 usuarios online)