tablaturas, partituras y acordes para guitarra
Busca por banda/artista:
 
y/o título de la canción:
A B C D E F G H I J K L M N O P Q R S T U V W X Y Z 0 1 2 3 4 5 6 7 8 9 / Top 100 tabs
Categorías
Usuarios
usuario:
Darse de alta
password:
Artistas más visitados
Publicidad
TOP acordes y tablaturas de Dave Matthews Band


Big Eyed Fish
de Dave Matthews Band
Puntúa este acorde/tab:      
(0.2/5)
Reportar este acorde/tab
  Añadir a tus favoritos
  Imprimir
Dave plays this on a 12 string.  indicates slide down
/ indicates slide up.
Intro/Verse
e------------
B------------
G------------
D--95-5--4/-
A--73-2--2/-
E------------

Chorus
e----(3)-3-----
B-----1-----3--
G-----0-----4--
D--2--2-----4--
A--2--3--2--2--
E--0-----3-----

Bridge 
"No way"   "out of..."
e--3-(3)-        e--5--
B-----1-- B--3--
G-----0-- G--0--
D-----2-- D--4--
A--2--3-- A--5--
E--3----- E-----

Violin Riff 
e---------------------------10-12--
B--------------10----10-12---------
G--9-7-9-11-12----12---------------
D----------------------------------
A----------------------------------
E----------------------------------
This is neat to do if you're playing as a duo.
		   
AcordesyTabs.com © 2008 Acordes y Tablaturas para guitarra. Tabs and Chords for guitar. Aviso Legal - Contacto
El uso de este sitio está sujeto a la aceptación de los términos y condiciones (32 usuarios online)