tablaturas, partituras y acordes para guitarra
Busca por banda/artista:
 
y/o título de la canción:
A B C D E F G H I J K L M N O P Q R S T U V W X Y Z 0 1 2 3 4 5 6 7 8 9 / Top 100 tabs
Categorías
Usuarios
usuario:
Darse de alta
password:
Artistas más visitados
Publicidad
TOP acordes y tablaturas de Bajo Sueños


Estás en: Inicio > Letra B > Acordes y tablaturas de Bajo Sueños > Dama Imaginaria
Dama Imaginaria
de Bajo Sueños
Puntúa este acorde/tab:      
(1/5)
Reportar este acorde/tab
  Añadir a tus favoritos
  Imprimir
Va todo con palm mute, o sea apagado,
y con mucha distorcion.

Próximamente el TAB de Como Olvidarte.

Intro

e|--------------------------------
B|---------------3--3-3-----------
G|--------4--4-4--------4--4-4----
D|-4--4-4-------------------------
A|--------------------------------
E|--------------------------------

e|--------------------------------
B|---------------3--3-3-----------
G|--------4--4-4--------4--4-4----
D|-5--5-5-------------------------
A|--------------------------------
E|--------------------------------

e|--------------------------------
B|---------------5--5-5-----------
G|--------6--6-6--------6--6-6----
D|-7--7-7-------------------------
A|--------------------------------
E|--------------------------------

A|-9--|-7-9-----------------------
B|-7--|-5-7-----------------------


Empieza con los acordes 5tas.
y una especie de cabalgado.

Muy pronto el solo.

Limon Indanza - Gral. Plaza
Morona Santiago - Ecuador.

Llamenme
(07) 770382
		   
AcordesyTabs.com © 2008 Acordes y Tablaturas para guitarra. Tabs and Chords for guitar. Aviso Legal - Contacto
El uso de este sitio está sujeto a la aceptación de los términos y condiciones (21 usuarios online)