tablaturas, partituras y acordes para guitarra
Busca por banda/artista:
 
y/o título de la canción:
A B C D E F G H I J K L M N O P Q R S T U V W X Y Z 0 1 2 3 4 5 6 7 8 9 / Top 100 tabs
Categorías
Usuarios
usuario:
Darse de alta
password:
Artistas más visitados
Publicidad
TOP acordes y tablaturas de Dave Matthews Band


Christmas Song
de Dave Matthews Band
Puntúa este acorde/tab:      
(0.1/5)
Reportar este acorde/tab
  Añadir a tus favoritos
  Imprimir
----------------------------------
Christmas Song
----------------------------------
Transcribed by:
Sean Spicer (driver8@phy.duke.edu)
----------------------------------
 
Intro
----------

e-------------------------------------------------------------
b-------------------------------------------------------------
g--7---7-0----------------------------------------------------
d--4/5-4-0--7---7-0--5----repeat------------------------------
a-----------4/5-4-0--2----------------------------------------
e-------------------------------------------------------------
 
The Rest
-------------

     She was his girl.. .      boy-friend
e-------------------------------------------------------------
b-------------------------------------------------------------
g--7---7-0----------------------------------------------------
d--4/5-4-0--7---7-0--5--------3----5-----repeat---------------
a-----------4/5-4-0--2--------5----3-------------------------- 
e-------------------------------------------------------------
 
Chorus (love,love,love)
       G    A    Bm
 
 When Jesus...                    blood of my

G  Bm  G  A  Bm  G  A  Bm  G  A  Bm  {G A Bm--repeat}


		   
AcordesyTabs.com © 2008 Acordes y Tablaturas para guitarra. Tabs and Chords for guitar. Aviso Legal - Contacto
El uso de este sitio está sujeto a la aceptación de los términos y condiciones (25 usuarios online)