tablaturas, partituras y acordes para guitarra
Busca por banda/artista:
 
y/o título de la canción:
A B C D E F G H I J K L M N O P Q R S T U V W X Y Z 0 1 2 3 4 5 6 7 8 9 / Top 100 tabs
Categorías
Usuarios
usuario:
Darse de alta
password:
Artistas más visitados
Publicidad
TOP acordes y tablaturas de Dave Matthews Band


Estás en: Inicio > Letra D > Acordes y tablaturas de Dave Matthews Band > Cortez The Killer
Cortez The Killer
de Dave Matthews Band
Puntúa este acorde/tab:      
(0/5)
Reportar este acorde/tab
  Añadir a tus favoritos
  Imprimir
Dave Matthews Band - Cortez the Killer (live at Central Park)

Strum these chords.

/=slide

Intro/Bridge
E  ----0--------x----/x----/x-----------0-------/0-----
B  ----3--------3----/5----/3-----------1-------/3-----
G  ----0--------2----/4----/2-----------x-------/x-----
D  ----2--------0----/0----/0-----------2-------/5-----
A  ----2--------0----/0----/0-----------0-------/0-----
E  ----0--------x----/x----/x-----------x-------/x-----

verse strums chords
E  ----0--------x-----------0-----------------------
B  ----3--------3-----------1-----------------------
G  ----0--------2-----------x-----------------------
D  ----2--------0-----------2-----------------------
A  ----2--------0-----------0-----------------------
E  ----0--------x-----------x-----------------------


This is my first tab.             
-ricky
		   
AcordesyTabs.com © 2008 Acordes y Tablaturas para guitarra. Tabs and Chords for guitar. Aviso Legal - Contacto
El uso de este sitio está sujeto a la aceptación de los términos y condiciones (36 usuarios online)