tablaturas, partituras y acordes para guitarra
Busca por banda/artista:
 
y/o título de la canción:
A B C D E F G H I J K L M N O P Q R S T U V W X Y Z 0 1 2 3 4 5 6 7 8 9 / Top 100 tabs
Categorías
Usuarios
usuario:
Darse de alta
password:
Artistas más visitados
Publicidad
TOP acordes y tablaturas de Dave Matthews Band


Crash Into Me
de Dave Matthews Band
Puntúa este acorde/tab:      
(0.5/5)
Reportar este acorde/tab
  Añadir a tus favoritos
  Imprimir
Dave Matthews Band - Crash Into Me

this is the best song of all time and it is all right hear, pritty easy
isnt it? and this the the right way too!!




Intro/verse
e------------------------------
----5--5--5------5--5--5-------
----4--4--4------4--4--4-------
----2--2--x------2--2--x-------
----4--0--2------x--0--2-------
E------------0---4--------0----

Crash into me....
e------------------------------
------------------3------------
--------------1---2------------
--------------2---0------------
--------------2---x------------
E---4--5--7---0---2------------

Tim Reynolds part for "In A Boy's dream..." 
E--0-0-0-0--0---0-0-0-0--0---:|| 
B--0-0-0-7--0---0-0-0-9--0---:|| 
G--9-9-9-9--9---9-9-9-9--9---:|| 
D--9-9-9-9--9---9-9-9-9--9---:|| 
A--x-x-x-x--x---x-x-x-x--x---:|| 
E--x-x-x-x--x---x-x-x-x--x---:||
		   
AcordesyTabs.com © 2008 Acordes y Tablaturas para guitarra. Tabs and Chords for guitar. Aviso Legal - Contacto
El uso de este sitio está sujeto a la aceptación de los términos y condiciones (25 usuarios online)