tablaturas, partituras y acordes para guitarra
Busca por banda/artista:
 
y/o título de la canción:
A B C D E F G H I J K L M N O P Q R S T U V W X Y Z 0 1 2 3 4 5 6 7 8 9 / Top 100 tabs
Categorías
Usuarios
usuario:
Darse de alta
password:
Artistas más visitados
Publicidad
TOP acordes y tablaturas de Dave Matthews Band


Crash
de Dave Matthews Band
Puntúa este acorde/tab:      
(0.2/5)
Reportar este acorde/tab
  Añadir a tus favoritos
  Imprimir
Dave Matthews Band
Song: Crash
Album: Crash


d = down stroke
u = up stroke


   d     d    dud    d  d    d  d    dud     d  d      d d    dud    d d     d  
E-------------------------------------------------------------------------------
B--------5---5-5-5-----5--------5---5-5-5-------5--------5---5-5-5-----5--------
G--------4---4-4-4-----4--------4---4-4-4-------4--------4---4-4-4-----4--------
D--------2---2-2-2-----2--------2---2-2-2-------2--------2---2-2-2-----2--------
A---4----------------0--------2---------------0----------------------0-------2--
E------------------------------------------------------4------------------------


E-----------------------------
B----------------------------3
G----------------------------2
D---------------------2------0
A---------------------2------x
E------4---5---7------0------2

I found a lot of versions of this song but none of them sounded right so this is
the versions I found and mixed them until it did sound right.
Enjoy.
By Greg Neesham  Email: ride_96@yahoo.com
		   
AcordesyTabs.com © 2008 Acordes y Tablaturas para guitarra. Tabs and Chords for guitar. Aviso Legal - Contacto
El uso de este sitio está sujeto a la aceptación de los términos y condiciones (34 usuarios online)