tablaturas, partituras y acordes para guitarra
Busca por banda/artista:
 
y/o título de la canción:
A B C D E F G H I J K L M N O P Q R S T U V W X Y Z 0 1 2 3 4 5 6 7 8 9 / Top 100 tabs
Categorías
Usuarios
usuario:
Darse de alta
password:
Artistas más visitados
Publicidad
TOP acordes y tablaturas de Dave Matthews Band


Crazy Easy
de Dave Matthews Band
Puntúa este acorde/tab:      
(0.1/5)
Reportar este acorde/tab
  Añadir a tus favoritos
  Imprimir
#-----------------------------PLEASE NOTE---------------------------------------
#The following file is the author's own work and represents their interpretation
#of the song. You may only use this file for private study, scholarship, or     
#research. Remember to view this file in Courier, or some other monospaced      
#font                                                                           
#-------------------------------------------------------------------------------

Crazy Easy, by Dave Matthews Band
Tabbed by Adam Hanley (adwolf16@aol.com)
www.angelfire.com/music4/dmbmidis


Intro:

e----------------|-------------|
b----------------|-------0-----|
g-11--11--11-/8--|-6--4--x--6--|
d-9---9---9--/9--|-x--x--2--x--|
a------------/x--|-7--5--5--7--|
E------------/7--|-5--3-----5--|

From what I can tell, the guitar doesn't play the root notes of the beginning of


Verse:

e--4--|-----|--4--|-----|
b--4--|--4--|--4--|--4--|
g--4--|--4--|--4--|--4--|
d--6--|--4--|--2--|--4--|
a-----|-----|-----|--2--|
E-----|-----|-----|-----|


Measure directly before the chorus:

e-----0--|
b--4--2--|
g--4--2--|
d--4--2--|
a--2--0--|
E--------|


Chorus:

e-----|-----------0--|
b-----|-----------2--|
g--4--|-----------2--|
d--0--|--4-4-4-5--2--|
a--2--|--5-5-5-5--0--|
E--3--|--------------|


Another pretty easy DMB song. Email me at AdWolF16@aol.com with any questions or
		   
AcordesyTabs.com © 2008 Acordes y Tablaturas para guitarra. Tabs and Chords for guitar. Aviso Legal - Contacto
El uso de este sitio está sujeto a la aceptación de los términos y condiciones (35 usuarios online)