tablaturas, partituras y acordes para guitarra
Busca por banda/artista:
 
y/o título de la canción:
A B C D E F G H I J K L M N O P Q R S T U V W X Y Z 0 1 2 3 4 5 6 7 8 9 / Top 100 tabs
Categorías
Usuarios
usuario:
Darse de alta
password:
Artistas más visitados
Publicidad
TOP acordes y tablaturas de Viernes Verde


Invisible
de Viernes Verde
Puntúa este acorde/tab:      
(0.7/5)
Reportar este acorde/tab
  Añadir a tus favoritos
  Imprimir
Para esta cancion es reconmendable usar una Gua-gua, para que te suene 
igual la cancion......

1-Guitarra..
e|-----------------------------------
B|-----------------------------------
G|-----------------------------------
D|--7---7-7--7--7---7--7--7-7--------
A|--7---7-7--7--7---7--7--7-7--------
E|--0---0-0--0--0---0--0--0-0--------

e|-----------------------------------
B|-----------------------------------
G|-----------------------------------
D|--7---7-7--7--7---7--7--7-7--------
A|--7---7-7--7--7---7--7--7-7--------
E|--0---0-0--0--0---0--0--0-0--------

Aquí entra la batería.. y la segunda guitarra, pero está usando 
distorción..... la 1-Guitarra se queda como esta.....

              1-Guitarra
e|-----------------------------------    
B|-----------------------------------     
G|-----------------------------------       
D|--7---7-7--7--7---7--7--7-7--------          
A|--7---7-7--7--7---7--7--7-7--------           
E|--0---0-0--0--0---0--0--0-0--------                      2-Guitarra
                                                 e|-----------------------------------    
                                                 B|-----------------------------------
                                                 G|-----------------------------------
                                                 D|--2---2-2--2--2---2--2--2-2--------
                                                 A|--2---2-2--2--2---2--2--2-2--------
                                                 E|--0---0-0--0--0---0--0--0-0--------


              1-Guitarra
e|-----------------------------------    
B|-----------------------------------     
G|-----------------------------------       
D|--7---7-7--7--7---7--7--7-7--------          
A|--7---7-7--7--7---7--7--7-7--------           
E|--0---0-0--0--0---0--0--0-0--------                       2-Guitarra
                                                 e|-----------------------------------    
                                                 B|-----------------------------------
                                                 G|-----------------------------------
                                                 D|--2---2-2--2--2---2--2--2-2--------
                                                 A|--2---2-2--2--2---2--2--2-2--------
                                                 E|--0---0-0--0--0---0--0--0-0--------

    Ya estoy pensando de nuevo
              1-Guitarra
e|-----------------------------------    
B|-----------------------------------     
G|-----------------------------------       
D|--7---7-7--7--7---7--7--7-7--------          
A|--7---7-7--7--7---7--7--7-7--------           
E|--0---0-0--0--0---0--0--0-0--------                       2-Guitarra
                                                 e|-----------------------------------    
                                                 B|-----------------------------------
                                                 G|-----------------------------------
                                                 D|--2---2-2--2--2---2--2--2-2--------
                                                 A|--2---2-2--2--2---2--2--2-2--------
                                                 E|--0---0-0--0--0---0--0--0-0--------

     En acariciarte los dedos
              1-Guitarra
e|-----------------------------------    
B|-----------------------------------     
G|-----------------------------------       
D|--7---7-7--7--7---7--7--7-7--------          
A|--7---7-7--7--7---7--7--7-7--------           
E|--0---0-0--0--0---0--0--0-0--------                        2-Guitarra
                                                 e|-----------------------------------    
                                                 B|-----------------------------------
                                                 G|-----------------------------------
                                                 D|--2---2-2--2--2---2--2--2-2--------
                                                 A|--2---2-2--2--2---2--2--2-2--------
                                                 E|--0---0-0--0--0---0--0--0-0--------


     No piensas que me arrepiento
              1-Guitarra
e|-----------------------------------    
B|-----------------------------------     
G|-----------------------------------       
D|--2-2-2-2-2--7-7-7-7-7-------------          
A|--2-2-2-2-2--7-7-7-7-7-------------           
E|--3-3-3-3-3--5-5-5-5-5-------------   
                                                                                                 
                                                                2-Guitarra
                                                 e|-----------------------------------    
                                                 B|-----------------------------------     
                                                 G|-----------------------------------       
                                                 D|--2-2-2-2-2--7-7-7-7-7-------------          
                                                 A|--2-2-2-2-2--7-7-7-7-7-------------           
                                                 E|--3-3-3-3-3--5-5-5-5-5-------------   

              1-Guitarra
e|-----------------------------------    
B|-----------------------------------     
G|-----------------------------------       
D|--7---7-7--7--7---7--7--7-7--------          
A|--7---7-7--7--7---7--7--7-7--------           
E|--0---0-0--0--0---0--0--0-0--------                          2-Guitarra
                                                 e|-----------------------------------    
                                                 B|-----------------------------------
                                                 G|-----------------------------------
                                                 D|--2---2-2--2--2---2--2--2-2--------
                                                 A|--2---2-2--2--2---2--2--2-2--------
                                                 E|--0---0-0--0--0---0--0--0-0--------


       Auque se que no te tengo
              1-Guitarra
e|-----------------------------------    
B|-----------------------------------     
G|-----------------------------------       
D|--2-2-2-2-2--7-7-7-7-7-------------          
A|--2-2-2-2-2--7-7-7-7-7-------------           
E|--3-3-3-3-3--5-5-5-5-5-------------   
                                                                                                 
                                                                2-Guitarra
                                                 e|-----------------------------------    
                                                 B|-----------------------------------     
                                                 G|-----------------------------------       
                                                 D|--2-2-2-2-2--7-7-7-7-7-------------          
                                                 A|--2-2-2-2-2--7-7-7-7-7-------------           
                                                 E|--3-3-3-3-3--5-5-5-5-5-------------  

   ahora biene la parte del coro  
              1-Guitarra
e|-----------------------------------    
B|-----------------------------------     
G|-----------------------------------       
D|--7---7-7--7--7---7--7--7-7--------          
A|--7---7-7--7--7---7--7--7-7--------           
E|--0---0-0--0--0---0--0--0-0--------                        2-Guitarra
                                                 e|-----------------------------------    
                                                 B|-----------------------------------
                                                 G|-----------------------------------
                                                 D|--2---2-2--2--2---2--2--2-2--------
                                                 A|--2---2-2--2--2---2--2--2-2--------
                                                 E|--0---0-0--0--0---0--0--0-0--------


              1-Guitarra
e|-----------------------------------    
B|-----------------------------------     
G|-----------------------------------       
D|--7---7-7--7--7---7--7--7-7--------          
A|--7---7-7--7--7---7--7--7-7--------           
E|--0---0-0--0--0---0--0--0-0--------                         2-Guitarra
                                                 e|-----------------------------------    
                                                 B|-----------------------------------
                                                 G|-----------------------------------
                                                 D|--2---2-2--2--2---2--2--2-2--------
                                                 A|--2---2-2--2--2---2--2--2-2--------
                                                 E|--0---0-0--0--0---0--0--0-0--------

          Ya no me voy a dejar 
              1-Guitarra
e|-----------------------------------    
B|-----------------------------------     
G|-----------------------------------       
D|--7---7-7--7--7---7--7--7-7--------          
A|--7---7-7--7--7---7--7--7-7--------           
E|--0---0-0--0--0---0--0--0-0--------                          2-Guitarra
                                                 e|-----------------------------------    
                                                 B|-----------------------------------
                                                 G|-----------------------------------
                                                 D|--2---2-2--2--2---2--2--2-2--------
                                                 A|--2---2-2--2--2---2--2--2-2--------
                                                 E|--0---0-0--0--0---0--0--0-0--------

     Ni me interesa sangrar
              1-Guitarra
e|-----------------------------------    
B|-----------------------------------     
G|-----------------------------------       
D|--7---7-7--7--7---7--7--7-7--------          
A|--7---7-7--7--7---7--7--7-7--------           
E|--0---0-0--0--0---0--0--0-0--------                         2-Guitarra
                                                 e|-----------------------------------    
                                                 B|-----------------------------------
                                                 G|-----------------------------------
                                                 D|--2---2-2--2--2---2--2--2-2--------
                                                 A|--2---2-2--2--2---2--2--2-2--------
                                                 E|--0---0-0--0--0---0--0--0-0--------


    no me arrepiento asia el olvido 
              1-Guitarra
e|-----------------------------------    
B|-----------------------------------     
G|-----------------------------------       
D|--2-2-2-2-2--7-7-7-7-7-------------          
A|--2-2-2-2-2--7-7-7-7-7-------------           
E|--3-3-3-3-3--5-5-5-5-5-------------   
                                                                                                 
                                                                2-Guitarra
                                                 e|-----------------------------------    
                                                 B|-----------------------------------     
                                                 G|-----------------------------------       
                                                 D|--2-2-2-2-2--7-7-7-7-7-------------          
                                                 A|--2-2-2-2-2--7-7-7-7-7-------------           
                                                 E|--3-3-3-3-3--5-5-5-5-5-------------   

              1-Guitarra
e|-----------------------------------    
B|-----------------------------------     
G|-----------------------------------       
D|--7---7-7--7--7---7--7--7-7--------          
A|--7---7-7--7--7---7--7--7-7--------           
E|--0---0-0--0--0---0--0--0-0--------                          2-Guitarra
                                                 e|-----------------------------------    
                                                 B|-----------------------------------
                                                 G|-----------------------------------
                                                 D|--2---2-2--2--2---2--2--2-2--------
                                                 A|--2---2-2--2--2---2--2--2-2--------
                                                 E|--0---0-0--0--0---0--0--0-0--------


       no quiero estar tan vacio 
              1-Guitarra
e|-----------------------------------    
B|-----------------------------------     
G|-----------------------------------       
D|--2-2-2-2-2--7-7-7-7-7-------------          
A|--2-2-2-2-2--7-7-7-7-7-------------           
E|--3-3-3-3-3--5-5-5-5-5-------------   
                                                                                                 
                                                                2-Guitarra
                                                 e|-----------------------------------    
                                                 B|-----------------------------------     
                                                 G|-----------------------------------       
                                                 D|--2-2-2-2-2--7-7-7-7-7-------------          
                                                 A|--2-2-2-2-2--7-7-7-7-7-------------           
                                                 E|--3-3-3-3-3--5-5-5-5-5-------------  

Ahora biene la parte del coro..


 
              1-Guitarra
e|-----------------------------------    
B|-----------------------------------     
G|-----------------------------------       
D|--7-7-7-7-7-----------------------         
A|--7-7-7-7-8------------------------   
E|--0-0-0-0-0------------------------                           2-Guitarra
                                                 e|-----------------------------------    
                                                 B|-----------------------------------
                                                 G|-----------------------------------
                                                 D|--7-7-7-7-7------------------------         
                                                 A|--7-7-7-7-8------------------------
                                                 E|--0-0-0-0-0------------------------
          siento que no estoy
               1-GUitarra
e|-----------------------------------    
B|-----------------------------------     
G|-----------------------------------       
D|--7-7-7-7-7-----------------------         
A|--7-7-7-7-8------------------------   
E|--0-0-0-0-0------------------------                           2-Guitarra
                                                 e|-----------------------------------    
                                                 B|-----------------------------------
                                                 G|-----------------------------------
                                                 D|--7-7-7-7-7------------------------         
                                                 A|--7-7-7-7-8------------------------
                                                 E|--0-0-0-0-0------------------------

           que ya no me vez
                1-Guitarra
e|-----------------------------------    
B|-----------------------------------     
G|-----------------------------------       
D|--7-7-7-7-7-----------------------         
A|--7-7-7-7-8------------------------   
E|--0-0-0-0-0------------------------                           2-Guitarra
                                                 e|-----------------------------------    
                                                 B|-----------------------------------
                                                 G|-----------------------------------
                                                 D|--7-7-7-7-7------------------------
                                                 A|--7-7-7-7-8------------------------
                                                 E|--0-0-0-0-0------------------------
            que soy invi-----
                1-Guitarra
e|-----------------------------------    
B|-----------------------------------     
G|-----------------------------------       
D|--7-7-7-7-7-----------------------         
A|--7-7-7-7-8------------------------   
E|--0-0-0-0-0------------------------                           2-Guitarra
                                                 e|-----------------------------------    
                                                 B|-----------------------------------
                                                 G|-----------------------------------
                                                 D|--7-7-7-7-7------------------------         
                                                 A|--7-7-7-7-8------------------------
                                                 E|--0-0-0-0-0------------------------
            --sible
                 1-Guitarra
e|-----------------------------------    
B|-----------------------------------     
G|-----------------------------------       
D|--10-10-10---12-12-12--------------         
A|--8--8--8----10-10-10--------------   
E|--0--0--0----0--0--0---------------                           2-Guitarra
                                                 e|-----------------------------------    
                                                 B|-----------------------------------
                                                 G|-----------------------------------
                                                 D|--10-10-10--12-12--12--------------         
                                                 A|--8--8--8---10-10-10---------------
                                                 E|--0--0--0---0--0--0----------------

          esta vez te vas..
               1-GUitarra
e|-----------------------------------    
B|-----------------------------------     
G|-----------------------------------       
D|--7-7-7-7-7-----------------------         
A|--7-7-7-7-8------------------------   
E|--0-0-0-0-0------------------------                           2-Guitarra
                                                 e|-----------------------------------    
                                                 B|-----------------------------------
                                                 G|-----------------------------------
                                                 D|--7-7-7-7-7------------------------
                                                 A|--7-7-7-7-8------------------------
                                                 E|--0-0-0-0-0------------------------

           y ya no volvez
                1-Guitarra
e|-----------------------------------    
B|-----------------------------------     
G|-----------------------------------       
D|--7-7-7-7-7-----------------------         
A|--7-7-7-7-8------------------------   
E|--0-0-0-0-0------------------------                         2-Guitarra
                                                 e|-----------------------------------    
                                                 B|-----------------------------------
                                                 G|-----------------------------------
                                                 D|--7-7-7-7-7------------------------         
                                                 A|--7-7-7-7-8------------------------
                                                 E|--0-0-0-0-0------------------------
            yo invi-----
                1-Guitarra
e|-----------------------------------    
B|-----------------------------------     
G|-----------------------------------       
D|--7-7-7-7-7-----------------------         
A|--7-7-7-7-8------------------------   
E|--0-0-0-0-0------------------------                         2-Guitarra
                                                 e|-----------------------------------    
                                                 B|-----------------------------------
                                                 G|-----------------------------------
                                                 D|--7-7-7-7-7------------------------         
                                                 A|--7-7-7-7-8------------------------
                                                 E|--0-0-0-0-0------------------------
            --sible
                 1-Guitarra
e|-----------------------------------    
B|-----------------------------------     
G|-----------------------------------       
D|--10-10-10---12-12-12--------------         
A|--8--8--8----10-10-10--------------   
E|--0--0--0----0--0--0---------------                         2-Guitarra
                                                 e|-----------------------------------    
                                                 B|-----------------------------------
                                                 G|-----------------------------------
                                                 D|--10-10-10--12-12--12--------------         
                                                 A|--8--8--8---10-10-10---------------
                                                 E|--0--0--0---0--0--0----------------

En este siguiente estrofa la 1-Guitarra la del Guagua cambia de ritmo, está va así..

 
               2-Guitarra
e|-----------------------------------    
B|-----------------------------------     
G|-----------------------------------       
D|-----------------------------------         
A|---8~7----8-8~-7----8~7----8-8~-7--   
E|-----------------------------------                                                

               2-Guitarra
e|-----------------------------------    
B|-----------------------------------     
G|-----------------------------------       
D|-----------------------------------         
A|---8~7----8-8~-7----8~7----8-8~-7--   
E|-----------------------------------                                                

aquí entra la 1-Guitarra
                                                               1-Guitarra
                                                 e|-----------------------------------    
                                                 B|-----------------------------------     
                                                 G|-----------------------------------       
                                                 D|--7---7-7--7--7---7--7--7-7--------          
                                                 A|--7---7-7--7--7---7--7--7-7--------
                                                 E|--0---0-0--0--0---0--0--0-0--------
               2-GUitarra
e|-----------------------------------    
B|-----------------------------------     
G|-----------------------------------       
D|-----------------------------------         
A|---8~7----8-8~-7----8~7----8-8~-7--   
E|-----------------------------------                                                

                                                               1-Guitarra
                                                 e|-----------------------------------    
                                                 B|-----------------------------------     
                                                 G|-----------------------------------       
                                                 D|--7---7-7--7--7---7--7--7-7--------          
                                                 A|--7---7-7--7--7---7--7--7-7--------
                                                 E|--0---0-0--0--0---0--0--0-0--------

ASI SE VA SOLO EL FINAL CAMBIA UN POCO
ESPERO HABERLOS AYUDADO
		   
AcordesyTabs.com © 2008 Acordes y Tablaturas para guitarra. Tabs and Chords for guitar. Aviso Legal - Contacto
El uso de este sitio está sujeto a la aceptación de los términos y condiciones (29 usuarios online)