tablaturas, partituras y acordes para guitarra
Busca por banda/artista:
 
y/o título de la canción:
A B C D E F G H I J K L M N O P Q R S T U V W X Y Z 0 1 2 3 4 5 6 7 8 9 / Top 100 tabs
Categorías
Usuarios
usuario:
Darse de alta
password:
Artistas más visitados
Publicidad
TOP acordes y tablaturas de Chancho en Piedra


Invitación
de Chancho en Piedra
Puntúa este acorde/tab:      
(0.4/5)
Reportar este acorde/tab
  Añadir a tus favoritos
  Imprimir
INVITACIÓN

INTRO
                                                                {           APROXIMACION A LO REAL         }
E-0-------------------------------------------------{--------------------9-11-13/15/13-11/13/11-9/11/9-----}
B-0-------------------------------------------------{---------9-10-12-----------------------------------11-}
G-1---1--1--1----------------2--2--2----4--4--------{--9-11------------------------------------------------}
D-2---------------2--2------------------------------{------------------------------------------------------}
A-2-----------------------2/7-----------------------{------------------------------------------------------}
E-0-------------------------------------------------{------------------------------------------------------}

E----------------------------------------0----------------------------------------------3-1-0-1-3-1-0------
B-----------1/3/1---------1--------------0-----------------------------------------------------------------
G--2--4------------4--2-----4--2--1------1----1--1--1---------------2--2--2---4--4-------------------------
D-------------------------------------3--2---------------2--2----------------------------------------------
A----------------------------------------2----------------------2/7----------------------------------------
E----------------------------------------0-----------------------------------------------------------------

E--------------------------------------------0---------------
B---------1/3/1-----------5/6---5--3--1------0-----------------
G--2--4---------4--2---------------------4---1-----------------
D--------------------------------------------2----------------
A--------------------------------------------2----------------
E--------------------------------------------0----------------


(en todos los mi que ustedes crean que suena agregen lo sgt.  Bien rápido)

E--3-3-3-3-3-1-0-1-0-------------
B----------------------------------------
G--------------------------------------
D--------------------------------------
A-------------------------------------------
E-------------------------------------

E
Hoy me despertó una invitación 
        F
En un sueño como una revelación 
E               
Tengo que partir muy lejos de aquí 
      F                                   E
A encontrar lo que hace tiempo se nos perdió 
 
F                                      E 
Pronto volveré, me alimentaré de lo vivido 
F                                                 E
Todo va a estar bien, si es que tu querer está conmigo 
  

Voy en tránsito por otra región 
Encontrando nuevas caras de decepción 
Inconformidad con la vida actual 
Todos lo sienten pero nadie hace nada 
  
La modernidad nos está poniendo indiferentes 
Debemos hallar una solución urgentemente... por eso 
  
 E
Canta esta canción sin ningún temor 
          F
Que se escuche en todos lados tu invitación 
 E
Abre el corazón a un mundo mejor 
F                          G                         Am
Vamos todos a luchar para que los sueños se hagan realidad 
  
Am-C 

(cambia el ritmo a uno bien folklorico
se repite eso en la primera guitarra todo 
el rato mientras la segunda guitarra puede
puntear improvisaciones siulando al “cuatro”)

Am
En este lugar, importa lo que dices 
Am                     Am/G
Vale lo que haces, están los que te gusta hacer felices 
Am
No hay fronteras, ni esquemas 
Am                   Am/G
Estás en la nación, de tu imaginación 
C
No es un cambio permanente de ver la verdad 
C
Sino paralelamente hacer tu propia realidad 
Am
Creando teorías, acerca de la vida 
Am                                         Am/G
Creyendo en lo que hacemos, confiando en algo nuevo 
Am 
Debes escoger muy bien a quién le entregas todo 
Am                                              Am/G
Puedes estar rodeado de gente e igual sentirte solo 
C
Se sincero, pero guarda tus secretos 
C
Vive como quieras, no como te ordenan 
Am
No hay limitación en la creación 
Am                        Am/G
Así que presta atención 
C
No hay que ver para creer 
C                                    E7   E7/G                  
Sino creer para poder ver 

E
Civilización, contaminación 
        F
Cada esquina del planeta en extinción 
E
Sobrepoblación, globalización 
         F
Todo el mundo frente a la misma situación 
  
F                                    E
La humanidad quiere unificar sus intereses 
F                                    E       E7   E7/G  
Pero la verdad, parecemos ser tan diferentes 
  
E
De regreso estoy, el viaje acabó 
     F 
Y comprendo que el llamado era en mi interior 
E
Esta invitación es para todos 
           F                G                        Am
Pues nos toca decidir qué hacer con el tiempo que nos queda 


dedicada pa todos los marranos que realmente sienten
al espiritu del chancho en su interior y no a los 
que los siguen por el absurdo boom comercial que estan
provocando en este momento los chancho en piedra 

no mas parches de los chancho en mochilas de poseros
(dedicado a vo' topo ashdthuewyjcbxmnchyalñosjdhfjsd  prrrr)
		   
AcordesyTabs.com © 2008 Acordes y Tablaturas para guitarra. Tabs and Chords for guitar. Aviso Legal - Contacto
El uso de este sitio está sujeto a la aceptación de los términos y condiciones (22 usuarios online)