tablaturas, partituras y acordes para guitarra
Busca por banda/artista:
 
y/o título de la canción:
A B C D E F G H I J K L M N O P Q R S T U V W X Y Z 0 1 2 3 4 5 6 7 8 9 / Top 100 tabs
Categorías
Usuarios
usuario:
Darse de alta
password:
Artistas más visitados
Publicidad
TOP acordes y tablaturas de Dave Matthews Band


Crush
de Dave Matthews Band
Puntúa este acorde/tab:      
(0.3/5)
Reportar este acorde/tab
  Añadir a tus favoritos
  Imprimir

Crush
                            Music and Lyrics by David J. Matthews

DROP D TUNING

Bassline
e-------------------------------------------
b-------------------------------------2-----
g----------------2--4--------------2-----4--
d----------4--4----------------4------------
a--0^2--2--------------0^2--2---------------
d-------------------------------------------

"Crazy..."
e--2--2--------------------
b--3--3--------3--3--2--2--
g--4--0--------2--2--2--2--
d--4--4--------------------
a--2--2--------------------
d--------0--2--------2-----

"Crazy, how you..."
e----------------------
b----------------------
g--5--5--5--5--5--5----
d--5--5--5--5--5--5----
a--x--x--x--x--3--3----
d--3--3--5--5----------

"It feels so right.."
e-----
b-----
g--4--
d--2--
a--2--
d--2--

"Lovely lady..."
e--------------------
b--------------------
g--------------5--4--
d--7--7--9--9--5--2--
a--5--5--7--7--3--2--
d--5--5--7--7-----2--

"Crazy just thinkin'..."
e---------------
b---------------
g--12-12-12-12--
d--10-12-10-9---
a--8--10-10-10--
d--------10-----

"Or am I dreaming..."
e-------------------------------------------------------------------------------
b-------------------------------------------------------------------------------
g--4----------------------------------------------------------------------------
d--2--5--5--3--3--2--2----5--5--3--3--2--2----5--5--3--3--12--12--10--10--9--9--
a--2--5--5--3--3--2--2----5--5--3--3--2--2----5--5--3--3--12--12--10--10--9--9--
d--2--5--5--3--3--2--2----5--5--3--3--2--2----5--5--3--3--12--12--10--10--9--9--
		   
AcordesyTabs.com © 2008 Acordes y Tablaturas para guitarra. Tabs and Chords for guitar. Aviso Legal - Contacto
El uso de este sitio está sujeto a la aceptación de los términos y condiciones (23 usuarios online)