tablaturas, partituras y acordes para guitarra
Busca por banda/artista:
 
y/o título de la canción:
A B C D E F G H I J K L M N O P Q R S T U V W X Y Z 0 1 2 3 4 5 6 7 8 9 / Top 100 tabs
Categorías
Usuarios
usuario:
Darse de alta
password:
Artistas más visitados
Publicidad
TOP acordes y tablaturas de Dave Matthews Band


Cry Freedom
de Dave Matthews Band
Puntúa este acorde/tab:      
(0.2/5)
Reportar este acorde/tab
  Añadir a tus favoritos
  Imprimir
#----------------------------------PLEASE NOTE--------------------------------#
#This file is the author's own work and represents their interpretation of the#
#song. You may only use this file for private study, scholarship, or research.#
#-----------------------------------------------------------------------------#

Date: Sun, 26 Apr 1998 00:41:04 -0400 (EDT)
From: dmbfan@iname.com
Subject: d/matthews_dave_band/cry_freedom.tab

--------------------------------------
Cry Freedom
Performed By - Dave Matthews Band
Album - Crash
--------------------------------------
Transcribed By
David Morganthaler (dmbfan@iname.com)
--------------------------------------

Cry Freedom
-----------

Intro:

E----------0-----------0---------|
B----------2-----------0---------|
G----------2-----------1---------|
D----------2-----------2---------|
A----------0-----------2---------|
E-------------4--2-----0---------|

You'll want to listen to the album to hear the intro rhythm correctly.
Dave usually throws in a few hammer-ons to keep it interesting.

Verse:

"How can I turn away..."   "Brother, sister, go dancing through my head..."

       A      B    E   Bsus4
E------5------7----0---7-----|
B------5------7----0---7-----|
G------6------8----1---9-----|
D------7------9----2---9-----|
A------7------9----2---7-----|
E------5------7----0---7-----|

"Human as to human, the future is no place... To place your better days"

        A      B   E       Bsus4     Bsus4   B   E  A                           
E-------5------7---0-------7---------7-------7---0--5---------------------------
B-------5------7---0-------7---------7-------7---0--5---------------------------
G-------6------8---1-------9---------9-------8---1--6---------------------------
D-------7------9---2-------9---------9-------9---2--7---------------------------
A-------7------9---2-------7---------7-------9---2--7---------------------------
E-------5------7---0-------7---------7-------7---0--5----------------4------2---

Chorus:

"Cry freedom, cry..."

    Bsus2  D    Asus2 C#sus2    Bsus2  D    Asus2 C#sus2         E
E---2------2----0-----4-----|---2------2----0-----4-----|--------0------------|
B---2------3----0-----4-----|---2------3----0-----4-----|--------0------------|
G---4------2----2-----6-----|---4------2----2-----6-----|--------1------------|
D---4------0----2-----6-----|---4------0----2-----6-----|--------2------------|
A---2-----------0-----4-----|---2-----------0-----4-----|--------2------------|
E---2-----------------4-----|---2-----------------4-----|--------0------------|

Return to, "How can I turn away..."


Enjoy!!!

David Morganthaler

dmbfan@iname.com
		   
AcordesyTabs.com © 2008 Acordes y Tablaturas para guitarra. Tabs and Chords for guitar. Aviso Legal - Contacto
El uso de este sitio está sujeto a la aceptación de los términos y condiciones (31 usuarios online)