tablaturas, partituras y acordes para guitarra
Busca por banda/artista:
 
y/o título de la canción:
A B C D E F G H I J K L M N O P Q R S T U V W X Y Z 0 1 2 3 4 5 6 7 8 9 / Top 100 tabs
Categorías
Usuarios
usuario:
Darse de alta
password:
Artistas más visitados
Publicidad
TOP acordes y tablaturas de Dave Matthews Band


Estás en: Inicio > Letra D > Acordes y tablaturas de Dave Matthews Band > Dancing Nancies Solo Acoustic
Dancing Nancies Solo Acoustic
de Dave Matthews Band
Puntúa este acorde/tab:      
(0.2/5)
Reportar este acorde/tab
  Añadir a tus favoritos
  Imprimir

Tab by Darel_Mx

Title: Dancing Nancies
Artist: Dave Mathews Band
(Tab based in the Story teller concert
whit Tym Reynods. This is a one guitar adaptation)

*Chord

   G F#maj Bm D   A
E|-3---2---2--2--0-x
B|-3---2---3--3--2-5
G|-4---3---4--2--2-6
D|-5---4---4--0--2-7
A|-5---4---2--x--0-0
E|-3---2---2--x--x-x

For the intro and some verse just play the G and F#maj chord alternaty whit some
The variation in this chord are the next:
Intro
     G     F#maj    G     F#maj     G           F#maj        G           F#maj
     1      1       1      1        2             2          2              2   
E|-------|------|------|------|-----------|--------------|----------|-----------
B|-------|------|------|------|-----------|--------------|----------|-----------
G|-------|------|------|------|-----------|--------------|----------|-----------
D|-------|------|------|------|-----------|--------------|----------|-----------
A|-------|------|------|------|--7/5--5---|--4/5/4-2-2-2-|-7/5--5---|--4/5/4-2-2
E|-3-3-3-|2-2-2-|3-3-3-|2-2-2-|-3----3--3-|2-------------|3----3--3-|2----------

          G              F#maj                  G              F#maj
          3                3                    3                3
E|----x--0-0-0-0h2-|------x--0-0-0-0h1|----x--0-0-0-0h2-|------x--0-0-0-0h1|
B|----3--0-0-0-0-0-|------2--0-0-0-0-0|----3--0-0-0-0-0-|------2--0-0-0-0-0|
G|----4--4-4-4-4-4-|------3--3-3-3-3-3|----4--4-4-4-4-4-|------3--3-3-3-3-3|
D|----5--5-5-5-5-5-|------4--4-4-4-4-4|----5--5-5-5-5-5-|------4--4-4-4-4-4|
A|--7/5--5-5-5-5-5-|--4/5/4--4-4-4-4-4|--7/5--5-5-5-5-5-|--4/5/4--4-4-4-4-4|
E|-3--x------------|-2----------------|-3--x------------|-2----------------|
  

Now for the chorus jus follow the next sequence of chord:
Bm  D  A  F#maj
   
Lyrics: (lyrics from the Live at Luther concert)
*(number of variation)

Intro
(1)
Could I have been
A parking lot attendant
Could I have been
A millionaire in Bel Air
Could I have been
Lost Somewhere in Paris
Could I have been
You're little sister
Could I have been
Anyone other than me
Could I have been
Anyone other than me
Could I have been
Anyone

(2)
G- F#maj
He stands touch his hair his shoes untied
Tongue gaping stare
Could I have been a magnet for money?
Could have been anyone other than me?

(3) F#maj

(2)
G- F#maj
Twenty three and so tired of life
Such a shame to throw it all away
The images grow darker still                   A
Could I have been anyone other than me? Then I...

                D-A
look up at the sky
My mouth is open wide lick and taste
What's the use in worrying, what's the use in hurrying
Turn turn we almost become dizzy

(3) G-F#maj

G-F#maj
I am who I am who I am well who am I
Requesting some enlightenment
Could I have been anyone other than me
And then I'll

Bm-D-A-F#maj
Sing and dance
I'll play for you tonight
The thrill of it all
Dark clouds may hang on me sometimes
But I'll work it out
And then I
Look up at the sky
My mouth is open wide lick and taste
What's the use in worrying, what's the use in hurrying
Turn turn we almost become dizzy

(3) G-F#maj

G-F#maj
Falling out of a world of lies
Could I have been a dancing nancy a dancing nancy
Could I have been anyone other than me? 

Bm-D-A-F#maj
Sing and dance
I'll play for you tonight
The thrill of it all
Dark clouds may hang on me sometimes
But I'll work it out
And then I
Look up at the sky
My mouth is open wide lick and taste
What's the use in worrying, what's the use in hurrying
Turn turn we almost become dizzy

DAREL_MX
AcordesyTabs.com © 2008 Acordes y Tablaturas para guitarra. Tabs and Chords for guitar. Aviso Legal - Contacto
El uso de este sitio está sujeto a la aceptación de los términos y condiciones (35 usuarios online)