tablaturas, partituras y acordes para guitarra
Busca por banda/artista:
 
y/o título de la canción:
A B C D E F G H I J K L M N O P Q R S T U V W X Y Z 0 1 2 3 4 5 6 7 8 9 / Top 100 tabs
Categorías
Usuarios
usuario:
Darse de alta
password:
Artistas más visitados
Publicidad
TOP acordes y tablaturas de Dave Matthews Band


Digging A Ditch
de Dave Matthews Band
Puntúa este acorde/tab:      
(0.6/5)
Reportar este acorde/tab
  Añadir a tus favoritos
  Imprimir
Digging a Ditch
By Dave Matthews Band

Tabbed by: Dave Heiberger

Verse
E:-------------------
B:-------------------
G:----0-0-0-0-----0--
D:----0-0-0-0-----0--
A:----x-x-x-x---3-3--
E:-3--3 3 3-3--------



Fill
very cool once you get it memorized
E:-------------------------------------
B:-------------------------------------
G:------5-------4----------------------
D:-/3-------2-----------4-------5---0--
A:------------------2-------3----------
E:-------------------------------------
    1   4   1   4   1   4   1   4



Verse
Hard to figure out timing
E:---------------------------------------------
B:----------3---------------3---------------1--
G:----------0---------------0---------------0--
D:-----4---------4-------4------4--------2-----
A:-5-----------------5---------------3---------
E:---------------------------------------------
   3   2    1    2   3   2  1   2    3   2  1
		   
AcordesyTabs.com © 2008 Acordes y Tablaturas para guitarra. Tabs and Chords for guitar. Aviso Legal - Contacto
El uso de este sitio está sujeto a la aceptación de los términos y condiciones (23 usuarios online)