tablaturas, partituras y acordes para guitarra
Busca por banda/artista:
 
y/o título de la canción:
A B C D E F G H I J K L M N O P Q R S T U V W X Y Z 0 1 2 3 4 5 6 7 8 9 / Top 100 tabs
Categorías
Usuarios
usuario:
Darse de alta
password:
Artistas más visitados
Publicidad
TOP acordes y tablaturas de Dave Matthews Band


Estás en: Inicio > Letra D > Acordes y tablaturas de Dave Matthews Band > Dreams Of Our Fathers
Dreams Of Our Fathers
de Dave Matthews Band
Puntúa este acorde/tab:      
(0.2/5)
Reportar este acorde/tab
  Añadir a tus favoritos
  Imprimir
Dreams Of Our Fathers
Dave Matthews Band
Everyday
Tabbed By Louis Sedia
DMBojangles41@yahoo.com


Verse
e--------------------------------------
B--------------------------------------
G--------------------------------------
D------4-----4-----7-----5-------------
A----1-----2---------4-----2----2/4----
E--2-----0------/5-----5-----3---------

Chorus
-On the album version, he picks individual notes. On
The live soundcheck, he strums.
e-----------------------------------
B-----------------------------------
G---0----3----0----2----------------
D---2----0----0----0----------------
A---0----0----2----x----------------
E--------2---------2----------------

Bridge
-Think Little Thing
e---------------------------------------
B---------------------------------------
G---11--11---11-----7--7----------------
D----9---9----x-----7--7----------------
A---10--10----9-----x--x----------------
E----x---8---10-----7--6----------------
		   
AcordesyTabs.com © 2008 Acordes y Tablaturas para guitarra. Tabs and Chords for guitar. Aviso Legal - Contacto
El uso de este sitio está sujeto a la aceptación de los términos y condiciones (36 usuarios online)