tablaturas, partituras y acordes para guitarra
Busca por banda/artista:
 
y/o título de la canción:
A B C D E F G H I J K L M N O P Q R S T U V W X Y Z 0 1 2 3 4 5 6 7 8 9 / Top 100 tabs
Categorías
Usuarios
usuario:
Darse de alta
password:
Artistas más visitados
Publicidad
TOP acordes y tablaturas de Alice In Chains


Nutshell
de Alice In Chains
Puntúa este acorde/tab:      
(0.8/5)
Reportar este acorde/tab
  Añadir a tus favoritos
  Imprimir
Band: Alice in Chains
Song: Nutshell(unplugged)

tabbed by: Jamie stevens(also tabbed "orestes" without leaving a name...sexpisto

tunbed e standard and dropped down a half step...all flats
repeat through the whole song
e------3-----2--0-0-00-0---0-----0---0---0------3---333--
b--0---3-----3--3-3-33-3---3--33-3---3---3-3333-3---333--
g--1---0--0--2--0-0-00-0---0--00-0---0-0-0-0000-0-0-000--
d--2-2-0--0--0--2-2-22-0h2-2--22-0h2-2-2---2222---0------
a--2-2-2-----0--3-3-33-3---3-----3---3-3---3333---0------
e--0-0-3-------------------------------------------------
chorus
e--12-----------------------------------------10----------------12--------------
b-----12-----------------------------------------10----------------12-----------
g--------12-11brb-9--------------------7-10-9-------7----------------12-11brb-9-
d-------------------9-10bbbb---10-9-10----------------7--5-4brb-----------------
a-------------------------------------------------------------------------------
e-------------------------------------------------------------------------------

e----------------------------------0-------
b----------------------------------3-------
g--------------------4brb-------5--0strum--
d-----------7-------------5-4------2-------
a----5h7---------7------------5----3-------
e--0-----0-----0---------------------------

ill add the end part of the solo later...im just nearing my time limit on this t
		   
AcordesyTabs.com © 2008 Acordes y Tablaturas para guitarra. Tabs and Chords for guitar. Aviso Legal - Contacto
El uso de este sitio está sujeto a la aceptación de los términos y condiciones (35 usuarios online)