tablaturas, partituras y acordes para guitarra
Busca por banda/artista:
 
y/o título de la canción:
A B C D E F G H I J K L M N O P Q R S T U V W X Y Z 0 1 2 3 4 5 6 7 8 9 / Top 100 tabs
Categorías
Usuarios
usuario:
Darse de alta
password:
Artistas más visitados
Publicidad
TOP acordes y tablaturas de Dave Matthews Band


Everyday
de Dave Matthews Band
Puntúa este acorde/tab:      
(0.1/5)
Reportar este acorde/tab
  Añadir a tus favoritos
  Imprimir
Artist: Dave Matthews Band
Song: Everyday
Album: Everyday


Tabbed from several live performances and listening to the album.

NOTE: There is a fair amount of variation, so be creative.
He tends to be relatively creative with the bridge, not as much
with the verse or chorus. By no means is this considered 100%
accurate, this is just the way I like to play it.


Intro/Verse:

      Play 3x            Then this
E ---------------------|-----------------------------------------------
B ---------------------|-----------------------------------------------
G ----9---9-------9----|-------------------9---------------------------
D ----10--10------10---|------10-----------10--------------------------
A --8------------------|----8----8-------------------------------------
E ------------8-8------|--6--------6--8-8------------------------------
  Pick me up...           Everyday

Chorus:

E ----------------1--1-------|--3--3--3--3-----------------------------
B --0h1-1--1--1---1--1-------|--0--0--0--0-----------------------------
G --2---2--2--2---2--2-------|--0--0--0--0-----------------------------
D --2---2--2--2---2--2-------|--0--0--0--0-----------------------------
A ----------------3--3-------|--2--2--2--2-----------------------------
E ----------------1--1--*3-3-|--3--3--3--3-----------------------------
  All you need is...          Love...

* = Sometimes he's playing the full chord (F/G), other times he sticks
with the regular F, sometimes just the G notes, it's up to you.

Bridge:

E ------X------X-------------------------------------------------------
B ------6------4-------------------------------------------------------
G ------7------5---5--5------------------------------------------------
D -----------------X--X--5--5------------------------------------------
A -----------------3--3--X--X------4-----------------------------------
E --6-6----4-4-----------3--3--4h6-------------------------------------
     What you've got...

Questions/Comments, send 'em to CPPJames@aol.com
		   
AcordesyTabs.com © 2008 Acordes y Tablaturas para guitarra. Tabs and Chords for guitar. Aviso Legal - Contacto
El uso de este sitio está sujeto a la aceptación de los términos y condiciones (34 usuarios online)