tablaturas, partituras y acordes para guitarra
Busca por banda/artista:
 
y/o título de la canción:
A B C D E F G H I J K L M N O P Q R S T U V W X Y Z 0 1 2 3 4 5 6 7 8 9 / Top 100 tabs
Categorías
Usuarios
usuario:
Darse de alta
password:
Artistas más visitados
Publicidad
TOP acordes y tablaturas de Dave Matthews Band


Everyday
de Dave Matthews Band
Puntúa este acorde/tab:      
(0.2/5)
Reportar este acorde/tab
  Añadir a tus favoritos
  Imprimir
( David J. Matthews & Glen Ballard )


somente o violão e o vocal:

Pick me up, love!
(Pick me up, love)
Hey, how long, how long, how long (Everyday)
Everyday, ah

[Guitar I]
Intro & Verse: 
     
Intro & Verses: F C F C F C Bb F [figure 1]

[Guitar I]
Rhythm Guitar.    
                                                  [Figure 1]
    F       C              F       C              Bb          F
E | ---------------------- | ---------------------- | ----------------------- | - | 
B | ---------------------- | ---------------------- | ----------------------- | - | 
G | ----(b9)------(b9)----(b9)-- | ----(b9)------(b9)----(b9)-- | -------------------(b9)-- | - | 
D | ----10------10----10-- | ----10------10----10-- | ------10-----------10-- | - | 
A | --8-----8------------- | --8-----8------------- | ----8----8----8-8------ | - | 
e | ----------8-----8----- | ----------8-----8----- | --6--------6----------- | - | 

[Guitar II]
Lead Guitar.

E | ---------------------- | ---------------------- | ---------------------- | - | 
B | ---------------------- | ---------------------- | ---------------------- | - | 
G | --------(b9)---(b9)------- | -----7-(b9)7-(b9)--------- | ----7h(b9)-5--------(b9)-- | - | 
D | -----10---10---10----- | -------------10------- | ------------------10-- | - | 
A | ---------------------- | ---------------------- | --------------8-8----- | - | 
e | ---------------------- | ---------------------- | ---------------------- | - | 


Verse:

F       C       F              C
Pick me up, oh, from the bottom
F           C        Bb      F
Up to the top, love, everyday
F          C     F          C
Pay no mind to taunts or advances
F           C        Bb      F                       [Figure 1]
I take my chances on everyday

Left to right, Up and down, love
I push up love, love everyday
Jump in the mud, oh
Get your hands dirty with
Love it up on everyday

Chorus:

Am          F
All you need is
Am          F
All you want is
Am       C    F     G
All you need is love.
Am          F
All you need is
Am          F
What you want is
Am       C       G
All you need is love.


Everyday
Everyday
Oh, Everyday...

Verse II:

Pick me up, love, from the bottom
Up on to the top, love, everyday
Pay no mind to taunts or advances
I'm gonna take my chances on everyday

Left to right
Up and up and inside out right
Good love fight for everyday
Jump in the mud, mud
Get your hands filthy, love
Give it up, love, Everyday

Chorus:

All you need is
All you want is
All you need is love
All you need is
What you want is
All you need is love
Oh...

Pre-Chorus:
   Bb   Ab  Bb   C5 C/G
E | ---------------------
B | ---------------------
G | --5----3---5---5--5--
D | --3----1---3---5--5--
A | --X----X---X---3--X--
e | --6--4-4---6------3--

Bb           Ab  C G
What you've got
Bb           Ab  C G
Lay it down on me
Bb           Ab  C G
What you've got
Bb           Ab  C G
Lay it down on me

Chorus:

All you need is
All you want is
All you need is love.
All you need is
What you want is
All you need is love.

Everyday
Everyday
Oh, Everyday...

Verse III:

Pick me up love
Lift me up love
Pick me up love
Everday...

Up from the bottom , everyday
Up to the top love, everyday
Pick me up love
Lift me up love
Pick me up love
Everyday




---------------------------------------------------



versão 2 acustica(tribute to heroes)

Everyday 




Part 1
         *           *         *           *
E | ------------------------------------------------ | 
B | ------------------------------------------------ | 
G | --------(b9)-----(b9)---(b9)--------(b9)-----(b9)---(b9)---- | 
D | --10---10-12-------10---10---10-12-------10----- | 
A | -----8--8-----------x------8--8-----------x----- | 
E | -------------8---8--8--------------8---8--8----- | 


         *           *                           *
E | ---------------------------------------------------- | 
B | ---------------------------------------------------- | 
G | --------(b9)-----(b9)---(b9)------------------------------ | 
D | --10---10-12-------10---------10-----10---10---10--- | 
A | -----8--8-----------x-----8------8-------------10--- | 
E | -------------8---8--8---6---6------6----8----8--8--- | 


*- strum with fingernails
#- strum with thumb

Part 2
       *         *   * *     * *             #
   Am              F                         G
E | --------------------------------------------3-------------------- | 
B | ------1-1---1---1---1-1-----1-1-------------0-------------------- | 
G | ----0h2---------2---2-2-----2-2-------------0-------------------- | 
D | ----0h2---2-----3---3-3-----3-3-------------0-------------------- | 
A | --0-----------3-3---------------------------2-------------------- | 
E | ------------------1-----1h3-----------------3-------------------- | 


Part 3

E | -------------------------------------- | 
B | -------------------------------------- | 
G | ------------------8-----------5---5--- | 
D | ------10---10-----------8-----5---5--- | 
A | -------8-8--------6-----6-6-3--------- | 
E | --3/6---------4-4---4-4---------3----- | 

(part 1)
Pick me up love, from the bottom , up to the top. love, everyday
I pay no mind to taunts or advances. I take my chances on, everyday
Left to right, oh, up and down, love. I push up love, love, everyday
C'mon and jump in the mud of love. Get yourself filthy with good love it up your everyday.

(part 2)
Am              F                 Am               F
All you need is, what you want is, all you need is love.
Am              F                 Am               G
All you need is, what you want is, all you need is love.

(part 1)
Pick me up, love. From the bottom. Up on to the top, love. Everyday.
I will pay no mind to taunts or advances. I'm gonna take my chances on everyday.
You look, left to right, oh. Up and down, love. It's a good love fight for everyday.
C'mon and jump in the mud, your... Get yourself filthy with... Love it up your everyday.


(part 2)
Am              F                 Am               F
All you need is, what you want is, all you need is love.
Am              F                 Am               G
All you need is, what you want is, all you need is love.


(part 3)
What you've got, lay it down on me.
what you've got, lay it down on me.


(part 2)
Am              F                 Am               F
All you need is, what you want is, all you need is love.
Am              F                 Am               G
All you need is, what you want is, all you need is love.


(part 1)
Everyday, everyday, everyday, oh everyday. 		   
AcordesyTabs.com © 2008 Acordes y Tablaturas para guitarra. Tabs and Chords for guitar. Aviso Legal - Contacto
El uso de este sitio está sujeto a la aceptación de los términos y condiciones (27 usuarios online)