tablaturas, partituras y acordes para guitarra
Busca por banda/artista:
 
y/o título de la canción:
A B C D E F G H I J K L M N O P Q R S T U V W X Y Z 0 1 2 3 4 5 6 7 8 9 / Top 100 tabs
Categorías
Usuarios
usuario:
Darse de alta
password:
Artistas más visitados
Publicidad
TOP acordes y tablaturas de Dave Matthews Band


Fool To Think
de Dave Matthews Band
Puntúa este acorde/tab:      
(0.2/5)
Reportar este acorde/tab
  Añadir a tus favoritos
  Imprimir
Fool To Think
Dave Matthews Band
Everyday
Tabbed By Louis Sedia
DMBojangles41@yahoo.com


Verse
e---------------------------------------------------------
B---------------------------3------------------------------
G------------------7--------0---------4--------6--------4--
D---------4-----5--------4---------------------------------
A------2-----3--------5------------2--------4--------2-----
E---0---------------------------3--------5--------3--------


Chorus
e-------------------------------
B-------------------------------
G------------14-----------------
D------11-12----14--12/11------- x4
A-------------------------------
E---10--------------------------

Chorus (cont'd)
e-------------------------------
B-------------------------------
G------------14-----------------
D------11-12----14--12/11------- x4
A---10--------------------------
E-------------------------------

Jam
e---------------x---------------x-x---------------------------
B---------------x---------------x-x---------------------------
G---x---x---11--x-------x----7--x-x---x---x----x---x---9------
D---x---9----9--x---x---x----x--x-x---x---5----x---7---7------
A---7---7----7--x---x---9----9--x-x---3---3----5---5---5------
E---------------x--10--10---10--x-x---------------------------
		   
AcordesyTabs.com © 2008 Acordes y Tablaturas para guitarra. Tabs and Chords for guitar. Aviso Legal - Contacto
El uso de este sitio está sujeto a la aceptación de los términos y condiciones (50 usuarios online)