tablaturas, partituras y acordes para guitarra
Busca por banda/artista:
 
y/o título de la canción:
A B C D E F G H I J K L M N O P Q R S T U V W X Y Z 0 1 2 3 4 5 6 7 8 9 / Top 100 tabs
Categorías
Usuarios
usuario:
Darse de alta
password:
Artistas más visitados
Publicidad
TOP acordes y tablaturas de Dave Matthews Band


Grace Is Gone
de Dave Matthews Band
Puntúa este acorde/tab:      
(0.5/5)
Reportar este acorde/tab
  Añadir a tus favoritos
  Imprimir
Ok, I hate doing a tab where its finger-picked cuz A: it's a pain in 
the butt, and B: he may hit a couple different strings than what I put 
here and there. Anyways I just tabbed this out real quick without 
listening to the solo version I have so while it may not be exact, you 
can get the gist. 

Ok, to start out, make an open D shape, then take away the 2 on the 
high e string. This is the basic shape that the intro/verse is made up 
of. OK, now first, I'm just gonna tab out the main notes of the riff 
that really stand out, then I'll do the full tab. Also the timing is 
not indicated. Listen to a sound clip-preferably a solo one.
e--------------------------------
B--------------------------------
G-0h2-2----4-2-------------------
D----------------------4-----2---
A--------------------------------
E--------------------------------

e-------------------------------
B-------------------------------
G-0h2-2----4-2------------------
D---------------------------0---
A----------------------3--------
E-------------------------------
Ok now the whole thing:
e------------------------------------
B-------3-------3------3-------3-----
G-0h2-2---2-4-2---2------2-------2---
D--------------------4------4-2------
A------------------------------------
E------------------------------------

e-----------------------------------
B-------3-------3------3-------3----
G-0h2-2---2-4-2---2------2-------2--
D---------------------------0-------
A--------------------3--------------
E-----------------------------------

Chorus
e--3---(2)-(2)-----
B--0----3---3---2--
G--0----2---4---2--
D-------0---4---2--
A--2--------2---0--
E--3---------------
   G    D  Bm   A
e--3---(2)------
B--0----3---2---
G--0----2---2---
D-------0---2---
A--2--------4---
E--3------------
   G    D   A/C#
That's basically it. Again not every note in the Verse riff there is
exact(except for the ones I tabbed out at the very top) but it should 
get ya started. Peace,   ~PJ
		   
AcordesyTabs.com © 2008 Acordes y Tablaturas para guitarra. Tabs and Chords for guitar. Aviso Legal - Contacto
El uso de este sitio está sujeto a la aceptación de los términos y condiciones (26 usuarios online)