tablaturas, partituras y acordes para guitarra
Busca por banda/artista:
 
y/o título de la canción:
A B C D E F G H I J K L M N O P Q R S T U V W X Y Z 0 1 2 3 4 5 6 7 8 9 / Top 100 tabs
Categorías
Usuarios
usuario:
Darse de alta
password:
Artistas más visitados
Publicidad
TOP acordes y tablaturas de Dave Matthews Band


Granny
de Dave Matthews Band
Puntúa este acorde/tab:      
(0.1/5)
Reportar este acorde/tab
  Añadir a tus favoritos
  Imprimir
This is the right one...hopefully, although not nearly as good as dave plays it 
verse
e--0h2--2-0--0-0-0-----x
B--3----3-3--3/5-3-----x
G--2----2-2--2/4-2-----x
D--0----0-0--0-0-0-----x
A----------------------x
E------------------3-2-x

'stop' riff

G--7-6---7-2-6---7-2-6-2---9---
D--x-x---x-x-x---x-x-x-x---x---
A--x-x---x-x-x---x-x-x-x---x---
E--7-5---7-2-5---7-2-5-1---8---

' i say its love leads me here, turn me up turn me down...'

D,A#/Bb,G

Quite easy to play i reckon...enjoy this tune!!
Any comments, e-mail me at derrick_mc_cann@hotmail.com
		   
AcordesyTabs.com © 2008 Acordes y Tablaturas para guitarra. Tabs and Chords for guitar. Aviso Legal - Contacto
El uso de este sitio está sujeto a la aceptación de los términos y condiciones (22 usuarios online)