tablaturas, partituras y acordes para guitarra
Busca por banda/artista:
 
y/o título de la canción:
A B C D E F G H I J K L M N O P Q R S T U V W X Y Z 0 1 2 3 4 5 6 7 8 9 / Top 100 tabs
Categorías
Usuarios
usuario:
Darse de alta
password:
Artistas más visitados
Publicidad
TOP acordes y tablaturas de Dave Matthews Band


Halloween3
de Dave Matthews Band
Puntúa este acorde/tab:      
(0.6/5)
Reportar este acorde/tab
  Añadir a tus favoritos
  Imprimir
Dave Matthews & Tim Reynolds
Live at Luther College: Halloween


Verse
E:----------------------------
B:----------------------------
G:----------------------------
D:---------9-9--10-10--x-x----
A:----28--x-x--x--x---x-x----
E:-1-------7-7--8--8---x-x----
   1   2  

Chorus
E:----------------------------
B:----------------------------
G:----------------------------
D:-7-----5-----3-----2--------
A:-7-----5-----3-----2--------
E:-5-----3-----1-----0--------
                     1


Tabbed By Dave Heiberger
		   
AcordesyTabs.com © 2008 Acordes y Tablaturas para guitarra. Tabs and Chords for guitar. Aviso Legal - Contacto
El uso de este sitio está sujeto a la aceptación de los términos y condiciones (23 usuarios online)