tablaturas, partituras y acordes para guitarra
Busca por banda/artista:
 
y/o título de la canción:
A B C D E F G H I J K L M N O P Q R S T U V W X Y Z 0 1 2 3 4 5 6 7 8 9 / Top 100 tabs
Categorías
Usuarios
usuario:
Darse de alta
password:
Artistas más visitados
Publicidad
TOP acordes y tablaturas de Dave Matthews Band


Hello Again
de Dave Matthews Band
Puntúa este acorde/tab:      
(0.2/5)
Reportar este acorde/tab
  Añadir a tus favoritos
  Imprimir
#-----------------------------PLEASE NOTE---------------------------------------
#The following file is the author's own work and represents their interpretation
#of the song. You may only use this file for private study, scholarship, or     
#research. Remember to view this file in Courier, or some other monospaced      
#font                                                                           
#-------------------------------------------------------------------------------

Hello Again, by Dave Matthews Band
Tabbed by Adam Hanley (adwolf16@aol.com)
www.angelfire.com/music4/dmbmidis

Intro/Verse:

e---3--3-3--3-|---3--3-3----|---3-------3-|---3--3-3--3-|
b-3-3--1-3----|-3-3--1-3--1-|---1--1-1----|-3-3--1-3----|
g-0-0--3-0----|-0-0--3-0----|---0--3-0----|-0-0--3-0----|
d-------------|-------------|-------------|-------------|
a-------------|-------------|-3------3----|-------------|
E-------------|-------------|-------------|-------------|


(These exact notes are just guidelines. Feel free to strum around

e--3--3--|       e-3--3--|
b--3--1--|       b-1--1--|
g--0--3--|  and  g-0--3--|
d-(0)----|       d-x-----|
a--------|       a-3-----|
E--------|       E-------|

Also note that Dave frets the "root" note of C in the third measure with the sam


Chorus:

e-----------|-----------|-----------|-------------|
b-----------|-----------|-1-1-------|-------------|
g-3-3----3--|-3-3----3--|-0-0----3--|-3-3------3--|
d-0-0----0--|-0-0----0--|-2-2----0--|-0-0------0--|
a-1-1----1--|-1-1----1--|-3-3----1--|-1-1------1--|
E-3-3--1-3--|-3-3--1-3--|-3-3--1-3--|-3-3----1-3--|


Post-Chorus:

e----|----|----|----|
b----|----|----|----|
g-2--|-2--|-8--|-8--|
d-3--|-3--|-8--|-7--|
a-3--|-3--|-6--|-6--|
E-1--|-1--|----|-8--|

e----|----|----|----|----|----|----|
b----|----|----|----|----|-6--|-7--|
g-2--|-2--|-8--|-8--|-7--|-7--|-7--|
d-3--|-3--|-8--|-7--|-8--|-7--|-7--|
a-3--|-3--|-6--|-6--|-8--|-5--|-5--|
E-1--|-1--|----|-8--|-6--|----|----|


This song is pretty straightforward. Be careful with the time signatures, though
		   
AcordesyTabs.com © 2008 Acordes y Tablaturas para guitarra. Tabs and Chords for guitar. Aviso Legal - Contacto
El uso de este sitio está sujeto a la aceptación de los términos y condiciones (35 usuarios online)