tablaturas, partituras y acordes para guitarra
Busca por banda/artista:
 
y/o título de la canción:
A B C D E F G H I J K L M N O P Q R S T U V W X Y Z 0 1 2 3 4 5 6 7 8 9 / Top 100 tabs
Categorías
Usuarios
usuario:
Darse de alta
password:
Artistas más visitados
Publicidad
TOP acordes y tablaturas de Dave Matthews Band


Jimi Thing
de Dave Matthews Band
Puntúa este acorde/tab:      
(0.7/5)
Reportar este acorde/tab
  Añadir a tus favoritos
  Imprimir
Dave Matthews Band
Jimi Thing
Under the Table and Dreaming
Tabbed by Adam

There are a few tabs of this song out there, none of which are quite right, 
so given that I have the U-T-T-A-D song book, I thought I’d give a more depthy  
tab. If you have any questions or comments you can reach me at  musicalsyndrome1
If this tab really helps you out, please, by all means E-mail me and let me know
I love validation.      

   D           F           C           Csus4    C5add6      G          E5       
x5777x   133211  x3201x    x3301x  xx5585  320033  022xxx  x022xx    422x00


(gtr.1)
e-------------------------------------------------------------------------------
B-------------------------------------------------------------------------------
G--------------------------------------------------------------2-----x---6h7---
D---------------------------9--x---9h11--x---9--------0----2----x----7-----
A---------7---------9h11-----x---0--0-----------11/0------0-----------------
E---7h9-----9------0--0--------------------------------------------------------


(gtr.2)
e-------------------------------------------------------------------------------
B---------------------------------9----------9---9-----9--------2---2---6h7--
G--------------------------9-----9----------9---9------9-------2---2----7----   
D--------------------------9-----9h11-----11--9------9-------2---2----------  re
A-------------------9h11--------0------------------------------0---0----------
E--------------------0----------------------------------------------------------

(gtr.3, fill 1)
e-------------------------------------------------------------------
B---------------------------------12---12h14--------------------
G-------------------------------------------------------------------
D-------------------------------------------------------------------
A-------------------------------------------------------------------
E-------------------------------------------------------------------

Riff one goes throughout the whole verse but when you get to the lyric “not got”

Pre-chorus:  
          D                                              F                      
If you could keep me floating, just for a while; ‘till I get to the end of this 
          D                                              F                      
If you could keep me floating, just for a while; ‘till I get back to you. 
Riff to chorus:
C5add6
e----5----------------------------------
B---8----------------------------------
G---5----------------------------------
D---5----------------------------------
A---x-----------------------------------
E---x---------8---7/3--3---------------

(gtr.2)
----0-----1-----0--------3-------------
----------------------3----------------0
---------------------------------------0
----------------------------------------
----------------------------------------
------------------------------3---3----




Chorus riff:

  A5                                  E5
---------------------------------------
----------------------------------------
----2----x-------x-------------------------
----2----x-------x-----4-----2-------------
----0----x-------x------------2-------------
----0-------3-------2---------0------------

sometimes a Jimi Thing slides my way, keep me swinging 

E5                    E/G#     
     I’d like to show you what’s inside


E5                          E/G#                    A5                          
Shouldn’t care, I shouldn’t care bereaved as I’m feeling 

During violin jam:

E5    G   A5   G  E5


During sax jam:

   Em   Am  Em  Am

There it is, if someone E-mails me and requests it, I’ll tab out the violin solo
		   
AcordesyTabs.com © 2008 Acordes y Tablaturas para guitarra. Tabs and Chords for guitar. Aviso Legal - Contacto
El uso de este sitio está sujeto a la aceptación de los términos y condiciones (29 usuarios online)