tablaturas, partituras y acordes para guitarra
Busca por banda/artista:
 
y/o título de la canción:
A B C D E F G H I J K L M N O P Q R S T U V W X Y Z 0 1 2 3 4 5 6 7 8 9 / Top 100 tabs
Categorías
Usuarios
usuario:
Darse de alta
password:
Artistas más visitados
Publicidad
TOP acordes y tablaturas de Dave Matthews Band


Joy Ride
de Dave Matthews Band
Puntúa este acorde/tab:      
(0.2/5)
Reportar este acorde/tab
  Añadir a tus favoritos
  Imprimir
#-----------------------------PLEASE NOTE---------------------------------------
#The following file is the author's own work and represents their interpretation
#of the song. You may only use this file for private study, scholarship, or     
#research. Remember to view this file in Courier, or some other monospaced      
#font                                                                           
#-------------------------------------------------------------------------------

Joy Ride, by Dave Matthews Band
Tabbed by Adam Hanley (adwolf16@aol.com)
www.angelfire.com/music4/dmbmidis


Intro/Verse:

e-----------|-------------|
b-----------|-------------|
g-----------|-------------|
d-5--5-5-5--|-5--5-5-5-5--|
a-5--5-3-2--|-5--5-3-2-3--|
E-3--3-3-3--|-3--3-3-3-3--|

e-----------|--------------------|
b-----------|--------------------|
g-----------|---------2--2--2--2-|
d-5--5-5-5--|-5--5-5--3--3--3--3-|
a-5--5-3-2--|-5--5-3--3--3--3--3-|
E-3--3-3-3--|-3--3-3--1--1--1--1-|


Chorus:

e-------------|-------------|
b-------------|-------------|
g-9h11--9h11--|-9h11--9h11--|
d-9-----9-----|-9h11--9h11--|
a-9h11--9h11--|-0-----0-----|
E-0-----0-----|-------------|

Dave stole from himself on this one.. the chorus here is the same as the verse o


Post-Chorus:

e-------------|
b-------------|
g-------------|
d-2--4--5--3--|
a-2--4--5--3--|
E-0--2--3--1--|


Bridge:

e--0--3-----0--1--0--1--2--|
b--1--0--1--0--1--1--3--3--|
g--0--0--2--0--2--0--3--2--|
d--2--0--2--2--3--2--3--0--|
a--3--2--0--2--3--3--1-----|
E-----3-----0--1-----------|

e--0--3-----0--1--0--1--2--0--|
b--1--0--1--0--1--1--3--3--2--|
g--0--0--2--0--2--0--3--2--2--|
d--2--0--2--2--3--2--3--0--2--|
a--3--2--0--2--3--3--1-----0--|
E-----3-----0--1--------------|


If you threw Rapunzel, So Damn Lucky and Kit Kat Jam in a blender, you'd get Joy
		   
AcordesyTabs.com © 2008 Acordes y Tablaturas para guitarra. Tabs and Chords for guitar. Aviso Legal - Contacto
El uso de este sitio está sujeto a la aceptación de los términos y condiciones (32 usuarios online)