tablaturas, partituras y acordes para guitarra
Busca por banda/artista:
 
y/o título de la canción:
A B C D E F G H I J K L M N O P Q R S T U V W X Y Z 0 1 2 3 4 5 6 7 8 9 / Top 100 tabs
Categorías
Usuarios
usuario:
Darse de alta
password:
Artistas más visitados
Publicidad
TOP acordes y tablaturas de los Tres


Estás en: Inicio > Letra l > Acordes y tablaturas de los Tres > Jarabe para la tos
Jarabe para la tos
de los Tres
Puntúa este acorde/tab:      
(0.7/5)
Reportar este acorde/tab
  Añadir a tus favoritos
  Imprimir
G---------------------------
D---------7-----------7-----  ESTE ES EL INTRO Y LA PARTE
A---4---5---5---4---5---5---  A           
E-2---2-------2---2---------


G--------------------------------------
D--------------------------------------  CORO
A--------------------------------------
E-22222222-00000000-55555555/33333333--

A-44444444--(ESTO SE AÑADE CUANDO SE TOCA EL CORO
             POR SEGUNDA VEZ)

G---------------------------
D--------------------------- ESTA PARTE ES B
A---4---6---6-5---5-4---4---
E-2---2---6-----5-----4-----


AL FINAL SE TOCA 'A'(25)VECES.
		   
AcordesyTabs.com © 2008 Acordes y Tablaturas para guitarra. Tabs and Chords for guitar. Aviso Legal - Contacto
El uso de este sitio está sujeto a la aceptación de los términos y condiciones (15 usuarios online)