tablaturas, partituras y acordes para guitarra
Busca por banda/artista:
 
y/o título de la canción:
A B C D E F G H I J K L M N O P Q R S T U V W X Y Z 0 1 2 3 4 5 6 7 8 9 / Top 100 tabs
Categorías
Usuarios
usuario:
Darse de alta
password:
Artistas más visitados
Publicidad
TOP acordes y tablaturas de Dave Matthews Band


Estás en: Inicio > Letra D > Acordes y tablaturas de Dave Matthews Band > Lie In Our Graves
Lie In Our Graves
de Dave Matthews Band
Puntúa este acorde/tab:      
(0.4/5)
Reportar este acorde/tab
  Añadir a tus favoritos
  Imprimir
#----------------------------------PLEASE NOTE--------------------------------#
#This file is the author's own work and represents their interpretation of the#
#song. You may only use this file for private study, scholarship, or research.#
#-----------------------------------------------------------------------------#

Date: Fri, 26 Jun 1998 03:20:34 -0400
From: Nathan Robert Taylor 
Subject: d/dave_matthews_band/lie_in_our_graves.tab

Dave Matthews Band
Lie In Our Graves (from the CRASH album)
By Dave Matthews
1996 Colden Grey ltd. (ASCAP)
Tabbed By Nathan Taylor


Whomever sees this should know that this is my first posting, and it may
not be incredibly accurate, but it does the trick and sounds good.
The important stuff is at the top and it is all put together at the
bottom
of the page. This should be enough to get anyone started. Listen to the
CD
the intricacies and rythyms as there is almost no way to show this in
tablature. Dave Matthews Rocks!!!!!!!!!!


(Guitar Riff 1)
    D       G   (palm mute)
e--2-2-2--------x-x-|------------------3-3-3----|
B--3-3-3--------x-x-|------------------0-0-0----|
G--2-2-2--------x-x-|----------2-------0-0-0----|repeat 4 times
D--0-0-0--------x-x-|-0--2--4-----4----0-0-0----|
A--0-0-0--4--2--x-x-|------------------2-2-2-0--|
E--x-x-x--------x-x-|----------------3-3-3-3----|

(Guitar Riff 2)              | (hammer on/pull off here)
  D       C                  V
e-2-2-2------------|-0-0-0-----------------|
B-3-3-3------------|-1-1-1-----------------|
G-2-2-2-------2----|-0-0-0--0/2/0-0--------|
D-0-0-0--0-4---4-0-|-2-2-2----------4-2-4--|
A-0-0-0------------|-3-3-3-----------------|
E-x-x-x------------|-0-0-0-----------------|

(Bridge 1)
   C   D C D  (palm mute)  Am           Bm             ?    ? Bm/Am/Bm
e--0---2-0-2--|-x-x-x-x-|--0-0---0-0--|--2-2---2-2--|--3-3---3-2-0-2--|
B--1---3-1-3--|-x-x-x-x-|--1-1---1-1--|--2-2---2-2--|--3-3---3-2-1-2--|
G--0---2-0-2--|-x-x-x-x-|--2-2---2-2--|--4-4---4-4--|--5-5---5-4-2-4--|
D--2---0-2-0--|-x-x-x-x-|--2-2---2-2--|--4-4---4-4--|--5-5---5-4-2-4--|
A--3---0-3-0--|-x-x-x-x-|--0-0---0-0--|--2-2---2-2--|--3-3---3-2-0-2--|
E--0---x-0-x--|-x-x-x-x-|--0-0---0-0--|--2-2---2-2--|--3-3---3-2-0-2--|

note that anything in < > brackets is like directions on what to do


When I step into the light
My arms are open wide
When I step into the light
My eyes search wildly
Would you not Like to be
Sitting on top of the world with
 your legs hanging free
Would you not like to be ok, ok, ok?
(chorus)
When I'm walking by the water
Splish splash me and you takin' a bath
When I'm walking by the water
Come up through my toes
To my ankles
To my head
To my soul
I'm blown away

<-Guitar Riff 2- repeat 4 times>







(chorus)
When I'm walking by the water
Splish splash me and you takin' a bath
Come up through my toes
To my ankles
To my soul
And I'm blown away



There is a big "solo" here with all of the instruments that is really
long and
I haven't gotten it all as of yet, so bear with me. I will include it in
my
next posting.




(Verse 2)
I can't believe that we would



 lie in our graves
Wondering if we had
spent our living days well
I can't believe that we would
 lie in our graves
Dreaming of things that we
 might have been

Would you not like to be
I can't believe that you
 would not like to be
Would you not like to be
 Ok, Ok, Ok
Ok, Ok, Ok



   G     A
e--3-3---0--|
B--0-0---2--|
G--0-0---2--|
D--0-0---2--|
A--2-2---0--|
E--3-3---0--|


That's it for now, don't forget to sign the OLGA petition and keep the
OLGA running!
Any questions or comments should
be directed to
VaarkMann@Juno.Com
 Nathan


		   
AcordesyTabs.com © 2008 Acordes y Tablaturas para guitarra. Tabs and Chords for guitar. Aviso Legal - Contacto
El uso de este sitio está sujeto a la aceptación de los términos y condiciones (21 usuarios online)