tablaturas, partituras y acordes para guitarra
Busca por banda/artista:
 
y/o título de la canción:
A B C D E F G H I J K L M N O P Q R S T U V W X Y Z 0 1 2 3 4 5 6 7 8 9 / Top 100 tabs
Categorías
Usuarios
usuario:
Darse de alta
password:
Artistas más visitados
Publicidad
TOP acordes y tablaturas de Supergrass


Moving
de Supergrass
Puntúa este acorde/tab:      
(0.3/5)
Reportar este acorde/tab
  Añadir a tus favoritos
  Imprimir

Moving - Supergrass  
-------------------


Tabbed using www.GuitarAndBass.co.uk Transcription Tools v1.12
--------------------------------------------------------------


Chords
     C  Emadd9 C    Am7     B7sus2   B7          Bm   A    Em           
E||-------2----0----0----|--2--------2--------|--2----0----0--------|
B||--5----0----1----1----|--2--------4--------|--3----2----0--------|
G||--5----0----0----0----|--2--------2--------|--4----2----0--------|
D||--5----2----2----2----|--4--------4--------|--4----2----2--------|
A||-------2----3----0----|--2--------2--------|--2----0----2--------|
E||-------0--------------|--------------------|------------0--------|


Verse 1
C (5th fret)
Moving, just keep moving
                  Emadd9
Till I don't know what to say
C (Open)
I've been moving so long
Am7                   B7sus2 B7
The days all feel the same
C (5th fret)
Moving, just keep moving
                  Emadd9
Well I don't know why to stay
C (Open)         Am7
No ties to bind me
                  B7sus2 B7
No reasons to remain

Chorus
Bm             A         Em
Got a low, low feeling around me
Bm               A         Em
And a stone cold feeling inside
Bm                    A          Em
And I just can't stop messing my mind up
Bm         A         Em
Or wasting my time

Bm                  A         Em
There's a low, low feeling around me
Bm                A         Em
And a stone cold feeling inside
Bm                 A               Em
I've got to find somebody to help me
           B7sus2     B7
I keep you in mind

Verse 2 as Verse 1
Chorus
Verse 3 (no singing) as Verse 1


Tabbed using www.GuitarAndBass.co.uk Transcription Tools v1.12
--------------------------------------------------------------

		   
AcordesyTabs.com © 2008 Acordes y Tablaturas para guitarra. Tabs and Chords for guitar. Aviso Legal - Contacto
El uso de este sitio está sujeto a la aceptación de los términos y condiciones (100 usuarios online)