tablaturas, partituras y acordes para guitarra
Busca por banda/artista:
 
y/o título de la canción:
A B C D E F G H I J K L M N O P Q R S T U V W X Y Z 0 1 2 3 4 5 6 7 8 9 / Top 100 tabs
Categorías
Usuarios
usuario:
Darse de alta
password:
Artistas más visitados
Publicidad
TOP acordes y tablaturas de Dave Matthews Band


Long Black Veil
de Dave Matthews Band
Puntúa este acorde/tab:      
(0.1/5)
Reportar este acorde/tab
  Añadir a tus favoritos
  Imprimir
DAVE MATTHEWS BAND - LONG BLACK VEIL

       this is one badass song, dave kicks ass.  its a pretty simple 
song, just this intro and then the chorus which is just some common 
chords which i have below.


INTRO

-/------0-------0-----0-------0--/--
-/------1--3-3--------1--3-3-----/--
-/-------------------------------/--   repeat as needed.
-/-------------------------------/--
-/---3-------------3-------------/--
-/-------------------------------/--

Chorus consists of basicall just the f and c major chords

   C       F       simplified F(sounds just as good to me)
 --0--   --1--         --1--
 --1--   --1--         --1--
 --0--   --2--         --2--
 --2--   --3--         --3--
 --3--   --3--         --x--
 --x--   --1--         --x--

thats bout it, e-mail @ jec147@crosswinds.net 
		   
AcordesyTabs.com © 2008 Acordes y Tablaturas para guitarra. Tabs and Chords for guitar. Aviso Legal - Contacto
El uso de este sitio está sujeto a la aceptación de los términos y condiciones (30 usuarios online)