tablaturas, partituras y acordes para guitarra
Busca por banda/artista:
 
y/o título de la canción:
A B C D E F G H I J K L M N O P Q R S T U V W X Y Z 0 1 2 3 4 5 6 7 8 9 / Top 100 tabs
Categorías
Usuarios
usuario:
Darse de alta
password:
Artistas más visitados
Publicidad
TOP acordes y tablaturas de Dave Matthews Band


Long Black Veil
de Dave Matthews Band
Puntúa este acorde/tab:      
(0.4/5)
Reportar este acorde/tab
  Añadir a tus favoritos
  Imprimir
"LONG BLACK VEIL"
as covered by the DMB

Tabbed from the LS video.

Intro
e--------------------
B--------------------
G-----9--9--------9--
D----10-10-12-12-10--
A--------------------
E--8-----------------

Verse
e--------------------
B--------------------
G-----9--9--------9--
D----10-10-12-12-10--    x2, then
A--------------------
E--8-----------------

e----------------
B------7---------
G------------9---
D------9----10---
A--10-10--8------
E----------------

e--------------------
B--------------------
G-----9--9--------9--
D----10-10-12-12-10--    x2
A--------------------
E--8-----------------

Chorus
  Fbarre         C    Fbarre      C
"She walks these hills, in a long black veil..."
  C       Fbarre   C     Fbarre  G(back to intro)
"Nobody knows, knowbody sees, nobody knows but me."
		   
AcordesyTabs.com © 2008 Acordes y Tablaturas para guitarra. Tabs and Chords for guitar. Aviso Legal - Contacto
El uso de este sitio está sujeto a la aceptación de los términos y condiciones (38 usuarios online)