tablaturas, partituras y acordes para guitarra
Busca por banda/artista:
 
y/o título de la canción:
A B C D E F G H I J K L M N O P Q R S T U V W X Y Z 0 1 2 3 4 5 6 7 8 9 / Top 100 tabs
Categorías
Usuarios
usuario:
Darse de alta
password:
Artistas más visitados
Publicidad
TOP acordes y tablaturas de 40 below summer


Rope
de 40 below summer
Puntúa este acorde/tab:      
(0.6/5)
Reportar este acorde/tab
  Añadir a tus favoritos
  Imprimir

This song is in drop-d and i think 3 or 4 steps lower 

|-------------------------------------------|
|-------------------------------------------|
|-------------------------------------------|Repeat that a bunch of times
|000-777-8--333-5555------------------------|
|000-777-8--333-5555------------------------|
|000-777-8--333-5555------------------------|

then go to this

|------------------------|
|------------------------|
|------------------------|Hold each note for a little
|0-7-8--3-5--------------|
|0-7-8--3-5--------------|
|0-7-8--3-5--------------|

Then after he says "I'm at the end of my rope" you play this

|----------|
|----------|
|----------|
|-2--0-3---|you'll have to figure out the strumming for the 2 because i cant get it r
|-2--0-3---|righ
|-2--0-3---|

Thats it i think i'm pretty sure thats right


		   
AcordesyTabs.com © 2008 Acordes y Tablaturas para guitarra. Tabs and Chords for guitar. Aviso Legal - Contacto
El uso de este sitio está sujeto a la aceptación de los términos y condiciones (31 usuarios online)