tablaturas, partituras y acordes para guitarra
Busca por banda/artista:
 
y/o título de la canción:
A B C D E F G H I J K L M N O P Q R S T U V W X Y Z 0 1 2 3 4 5 6 7 8 9 / Top 100 tabs
Categorías
Usuarios
usuario:
Darse de alta
password:
Artistas más visitados
Publicidad
TOP acordes y tablaturas de Dave Matthews Band


Lover Lay Down
de Dave Matthews Band
Puntúa este acorde/tab:      
(0.5/5)
Reportar este acorde/tab
  Añadir a tus favoritos
  Imprimir
Lover Lay Down

Verse:
E------------------------------------------------------
B----2/4---4/6---6----7--------------------------------
G----0-----5-----7----7--------------------------------
D------------------------------REAPEAT-----------------
A------------------------------------------------------
E--2-----3-----5----7---5-----------------------------

Chorus:
E-----------------------------------------------
B--2--3-----3-----------------------------------
G--2--4--4--x--7--7-----------------------------
D--2--2--2--x--7--7-----------------------------
A--------x--2--x--x-----------------------------
E--------4--3--7--5-----------------------------
		   
AcordesyTabs.com © 2008 Acordes y Tablaturas para guitarra. Tabs and Chords for guitar. Aviso Legal - Contacto
El uso de este sitio está sujeto a la aceptación de los términos y condiciones (29 usuarios online)