tablaturas, partituras y acordes para guitarra
Busca por banda/artista:
 
y/o título de la canción:
A B C D E F G H I J K L M N O P Q R S T U V W X Y Z 0 1 2 3 4 5 6 7 8 9 / Top 100 tabs
Categorías
Usuarios
usuario:
Darse de alta
password:
Artistas más visitados
Publicidad
TOP acordes y tablaturas de Dave Matthews Band


One Sweet World
de Dave Matthews Band
Puntúa este acorde/tab:      
(0.3/5)
Reportar este acorde/tab
  Añadir a tus favoritos
  Imprimir
----------------------------------
One Sweet World
----------------------------------
Transcribed by:
Sean Spicer (driver8@phy.duke.edu)
----------------------------------

(old intro) 
e-
B-     4        6             4
G-        3        3    0        0^1^0        3  0
D-                                         3              3        3
A-  6        5       5     3            1              3     3
E-                                                  4           5     5


e-
B-
G-                    4 5      3
D-        5        7              3 0       3 0        3
A-     5     5                           3          3     6       6  8
E-  8           7           6         1          4           6  8


After fingerpicking


  repeat a few times------------> on the last time keep on
e---------------------------------strumming the "A" chord-------
b---------------------------------------------------------------
g-8--7--5-------------5>7---7--5--------------------------------
d----8--6---------3>5----------6--------------------------------
a-------------5-3-----------------------------------------------
e-8--6--4---4-------------6-6--4--------------------------------

Verses
e---------------------------------------------------------------
b---------------------------------------------------------------
g-----8-7--8>10-10-xxx-xx---------------------------------------
d-----8-8--8>10-10-xxx-xx--and repeat---------------------------
a---6--------------xxx-xx---------------------------------------
e---------6-----------------------------------------------------

so let us sleep....   lay down

e---------------------------------------------------------------
b---------------------------------------------------------------
g--------5>7---7--5--7-----------5>7---7--5---------------------
d----3>5----------6--8--------3>5---------6--hold and strum-----
a--3------------------------3-----------------------------------
e------------6-6--4--6---------------6-6--4---------------------

take all that  we can get  one big stone

e---------------------------------------------------------------
b--------------6--8---------------------8----6------------------
g--8--7--8-----7--8--7-----8--7--5------8----7------------------
d-----8--------------8--------8--6------------------------------
a--------------5--6-----------------4>6-6--5-5------------------
e--8--6--8-----------6-----8--6--4------------------------------

"nobody left to" is like "so let us sleep".


		   
AcordesyTabs.com © 2008 Acordes y Tablaturas para guitarra. Tabs and Chords for guitar. Aviso Legal - Contacto
El uso de este sitio está sujeto a la aceptación de los términos y condiciones (34 usuarios online)