tablaturas, partituras y acordes para guitarra
Busca por banda/artista:
 
y/o título de la canción:
A B C D E F G H I J K L M N O P Q R S T U V W X Y Z 0 1 2 3 4 5 6 7 8 9 / Top 100 tabs
Categorías
Usuarios
usuario:
Darse de alta
password:
Artistas más visitados
Publicidad
TOP acordes y tablaturas de Dave Matthews Band


Estás en: Inicio > Letra D > Acordes y tablaturas de Dave Matthews Band > Pay For What You Get
Pay For What You Get
de Dave Matthews Band
Puntúa este acorde/tab:      
(0.1/5)
Reportar este acorde/tab
  Añadir a tus favoritos
  Imprimir
Transcribed by: Adam Strachn 
Email: CookieMonster912@hotmail.com 
 
 
Dave plays this without a pick. The * indicate where he 
'taps' the strings with his nails on his right hand. The whole 
song is like this. 
 
 
Intro -  
-9/10---8-----------------------------------| 
-9/10---8-----------------------------------| 
-9/10---9----7--*--7------3---*---5---5--*--| 
-------------7--*--7------3---*---5---5--*--| 
-------------5--*--5------1---*---3---3--*--| 
--------------------------------------------| 
                                                                              
-9/10---8-----------------------------------| 
-9/10---8-----------------------------------| 
-9/10---9----5--*--5------5---*---7---7--*--| 
-------------5--*--5------5---*---7---7--*--| 
-------------3--*--3------3---*---5---5--*--| 
--------------------------------------------| 
          
                                                                      
Verse -  
-----------------------------------------------------------------| 
-----------------------------------------------------------------| 
-7--*--7--*--7--*--7--*--7--*---9--*--5--*--2--*--3--*--2--*--7--| 
-7--*--7--*--7--*--7--*--7--*--10--*--5--*--2--*--3--*--2--*--7--| 
-5--*--5--*--5--*--5--*--5--*---8--*--3--*--0--*--1--*--0--*--5--| 
-----------------------------------------------------------------| 
                                                                               
 
Chorus I ?  
-------------------------------------------------------------| 
-------------------------------------------------------------| 
----------3-*-3--*--5-*-5-*-5-*-5-*---------*-3-*-2-*-3-*-2--| 
-3-*-3-*--3-*-3--*--5-*-5-*-5-*-5-*--3-*-3--*-3-*-2-*-3-*-2--| 
-3-*-3-*--1-*-1--*--3-*-3-*-3-*-3-*--3-*-3--*-1-*-0-*-1-*-0--| 
-1-*-1-*-----------------------------1-*-1-------------------| 
 
 
 
 
 
 
Chorus II ? (Just like chorus I, but hold the last chord)  
-------------------------------------------------------| 
-------------------------------------------------------| 
----------3-*-3--*--5-*-5-*-----------3-*-2-*-3-*-2~~--| 
-3-*-3-*--3-*-3--*--5-*-5-*--3-*-3-*--3-*-2-*-3-*-2~~--| 
-3-*-3-*--1-*-1--*--3-*-3-*--3-*-3-*--1-*-0-*-1-*-0~~--| 
-1-*-1-*---------------------1-*-1-*-------------------|
		   
AcordesyTabs.com © 2008 Acordes y Tablaturas para guitarra. Tabs and Chords for guitar. Aviso Legal - Contacto
El uso de este sitio está sujeto a la aceptación de los términos y condiciones (32 usuarios online)