tablaturas, partituras y acordes para guitarra
Busca por banda/artista:
 
y/o título de la canción:
A B C D E F G H I J K L M N O P Q R S T U V W X Y Z 0 1 2 3 4 5 6 7 8 9 / Top 100 tabs
Categorías
Usuarios
usuario:
Darse de alta
password:
Artistas más visitados
Publicidad
TOP acordes y tablaturas de Dave Matthews Band


Estás en: Inicio > Letra D > Acordes y tablaturas de Dave Matthews Band > Pay For What You Get
Pay For What You Get
de Dave Matthews Band
Puntúa este acorde/tab:      
(0.1/5)
Reportar este acorde/tab
  Añadir a tus favoritos
  Imprimir
"PAY FOR WHAT YOU GET"- DMB

This song is finger picked, but can be played with a pick.
The "x's" represent when Dave taps the strings, making a percusive
sound.

Intro
e--8h10-8----x---x---x----x----x-8h10-8----x----x----x---x---x-
B--9h10-8----x---x---x----x----x-9h10-8----x----x----x---x---x-
G----------7-x-7-x---x----x----x-----------x----x----x-7-x-7-x-
D----------7-x-7-x-8-x-10-x-10-x--------10-x-10-x-10-x-7-x-7-x-
A----------5-x-5-x-8-x-10-x-10-x--------10-x-10-x-10-x-5-x-5-x-
E------------x---x-6-x--8-x--8-x---------8-x--8-x--8-x---x---x-

Verse
e----x---x---x---x---x---x-
B----x-5-x---x---x---x---x-
G--7-x-5-x-5-x---x---x---x-
D--7-x-3-x-5-x-7-x-8-x-7-x-
A--5-x---x-3-x-7-x-8-x-7-x-
E----x---x---x---x-6-x---x-

Chorus Lead-in & Chorus
e----x---x---x---x---x---x---x---x---x---x---x---x---x---x-
B----x-5-x---x---x---x---x---x---x---x---x---x---x---x---x-
G--7-x-5-x-5-x-5-x-5-x-5-x---x---x-3-x-3-x-5-x-5-x-5-x-5-x-
D--7-x-3-x-5-x-5-x-5-x-5-x-3-x-3-x-3-x-3-x-5-x-5-x-5-x-5-x-
A--5-x---x-3-x-3-x-3-x-3-x-3-x-3-x-1-x-1-x-3-x-3-x-3-x-3-x-
E----x---x---x---x---x---x-1-x-1-x---x---x---x---x---x---x-

Verse Lead-In from Chorus
e----x---x---x---x---x---x---x-
B----x---x---x---x---x---x---x-
G----x---x---x---x---x---x-7-x-
D--3-x-3-x-8-x-7-x-8-x-7-x-7-x- etc.
A--3-x-3-x-8-x-7-x-8-x-7-x-5-x-
E--1-x-1-x-6-x---x-6-x---x---x-
		   
AcordesyTabs.com © 2008 Acordes y Tablaturas para guitarra. Tabs and Chords for guitar. Aviso Legal - Contacto
El uso de este sitio está sujeto a la aceptación de los términos y condiciones (15 usuarios online)