tablaturas, partituras y acordes para guitarra
Busca por banda/artista:
 
y/o título de la canción:
A B C D E F G H I J K L M N O P Q R S T U V W X Y Z 0 1 2 3 4 5 6 7 8 9 / Top 100 tabs
Categorías
Usuarios
usuario:
Darse de alta
password:
Artistas más visitados
Publicidad
TOP acordes y tablaturas de Dave Matthews Band


Pig
de Dave Matthews Band
Puntúa este acorde/tab:      
(0.4/5)
Reportar este acorde/tab
  Añadir a tus favoritos
  Imprimir
Artist-Dave Matthews
Title-Pig
Transcribed By-Colin Maclellan
EG Had sex with a girl from keswick!!!


"Isn't it strange..."
E----------
B----------
G----------
D-9--9--9-- 
A-7--x--x-- 
E----5--7-- 

"This love will..."
E----------
B----------
G-2-------- 
D-2--2--4-- 
A----x--4--
E----4--2-- 

"Come sister..."
E-3------------3-----------
B-3--2---------3--2--------
G-0--2--4------0--2-----4--
D-0--2--4--4---0--2--4--4--
A-2-----2--4---2-----4--2--
E-3--------2---3-----2-----

"Love, Love, Love...."
E----------------
B----------------
G-4---4---4---3-- 
D-2---2---x---x-- 
A-x---x---x---x--
E-4---3---2---2-- 
		   
AcordesyTabs.com © 2008 Acordes y Tablaturas para guitarra. Tabs and Chords for guitar. Aviso Legal - Contacto
El uso de este sitio está sujeto a la aceptación de los términos y condiciones (31 usuarios online)