tablaturas, partituras y acordes para guitarra
Busca por banda/artista:
 
y/o título de la canción:
A B C D E F G H I J K L M N O P Q R S T U V W X Y Z 0 1 2 3 4 5 6 7 8 9 / Top 100 tabs
Categorías
Usuarios
usuario:
Darse de alta
password:
Artistas más visitados
Publicidad
TOP acordes y tablaturas de Dave Matthews Band


Seek Up
de Dave Matthews Band
Puntúa este acorde/tab:      
(0.2/5)
Reportar este acorde/tab
  Añadir a tus favoritos
  Imprimir
----------------------------------
Seek Up
----------------------------------
Transcribed by:
Sean Spicer (driver8@phy.duke.edu)
----------------------------------

Intro -


e---------------------------|
B---------------------------|
G---------------------------|
D-----10-10----12--10-------|
A--12-------12---------12---|
E---------------------------|

Fall Back Again....

e-------------------------------------------------------------|
B-------------------------------------------------------------|
G-------------------------------------------------------------|
D------8-8---8-------10-10--10----------10-10----12--10-------|
A----8-----8---8---10-----10--10----/12-------12---------12---|
E----6---------6---/8----------8------------------------------|


Verse
-----
Dm   C   Dm
e-------------------------------------------------------------------|
B-------------------------------------------------------------------|
G-------------------------------------------------------------------|
D-------10-10----12--10---------10-10--10---------10-10----12--10---|
A---/12-------12---------12---10-----10---10--/12-------12--------12|
E-------------------------------------------------------------------|


Chorus
------

"Forget about the reasons..."

e-------------------------------------------------------------|
B-------------------------------------------------------------|
G-------------------------------------------------------------|
D------8-8---8-------10-10--10----------10-10----12--10-------|
A----8-----8---8---10-----10--10----/12-------12---------12---|
E----6---------6---/8----------8------------------------------|



Bridge
------

"Seek up an emotion..."

Note: Play normal chords here, no fingerpicking.

A   Bm   G   A

Last time
---------

A   Bm   G   A   (ha ha... ha ha...)   Bm
walk up the bass

Bass (on Low E string if you want

E----5----6----8----10-----


		   
AcordesyTabs.com © 2008 Acordes y Tablaturas para guitarra. Tabs and Chords for guitar. Aviso Legal - Contacto
El uso de este sitio está sujeto a la aceptación de los términos y condiciones (31 usuarios online)