tablaturas, partituras y acordes para guitarra
Busca por banda/artista:
 
y/o título de la canción:
A B C D E F G H I J K L M N O P Q R S T U V W X Y Z 0 1 2 3 4 5 6 7 8 9 / Top 100 tabs
Categorías
Usuarios
usuario:
Darse de alta
password:
Artistas más visitados
Publicidad
TOP acordes y tablaturas de Dave Matthews Band


Estás en: Inicio > Letra D > Acordes y tablaturas de Dave Matthews Band > Sleep To Dream Her
Sleep To Dream Her
de Dave Matthews Band
Puntúa este acorde/tab:      
(0.4/5)
Reportar este acorde/tab
  Añadir a tus favoritos
  Imprimir
"Sleep To Dream Her"
by Dave Matthews Band
off the album Everyday

tabbed by Joshua Kirsch
e-mail me for any questions, comments, or corrections:
joshua@hhhworld.com



 time signature = 6/8
________________________________________________________________________________
VERSE
                                                                                
                                                                                
     1 + 2 + 3 + 4 + 5 + 6 +  1 + 2 + 3 + 4 + 5 + 6 +  1 + 2 + 3 + 4 + 5 + 6 +  
1            i know i'll miss her la----ter                wish i could bend my 
2          she stares up at the stars   when               the stars fell from h
3          oh i sleep just to dream       her            i beg the night just to
4          oh i came there to find      out                find out she'd made u
                                                                                
 e ||--7---7---7---7---7---7-|--7---7---7---6---6---6-|--5---5---5---5---5---5-|
 B ||--7---7---7---7---7---7-|--7---7---7---7---7---7-|--5---5---5---5---5---5-|
 G ||------------------------|------------------------|------------------------|
 D ||------------------------|------------------------|------------------------|
 A ||6-----------5-----------|4-----------4-----------|4-----------3-----------|
 E ||------------------------|------------------------|------------------------|
                                                                                
                                                                                
    1 + 2 + 3 + 4 + 5 + 6 +  1 + 2 + 3 + 4 + 5 + 6 +  1 + 2 + 3 + 4 + 5 + 6 +  1
1           wish i could be her crea---tor                    to  twist her arms
2         i bent down to co--lect      them                     and then she was
3       that my only love should be    her                just to lie in  her   
4         my  arms are all tired       out                    to  me  she was   
                                                                                
 e |--3---3---3---3---3---3-|--3---3---3---2---2---2-|--0---0---0---0---0---0-|-
 B |--3---3---3---3---3---3-|--3---3---3---3---3---3-|--3---3---3---3---3---3-|-
 G |------------------------|------------------------|------------------------|-
 D |------------------------|------------------------|------------------------|-
 A |2-----------1-----------|0-----------0-----------|0-----------0-----------|0
 E |------------------------|------------------------|------------------------|-
                                                                                


________________________________________________________________________________
CHORUS

    1 + 2 + 3 + 4 + 5 + 6 +  1 + 2 + 3 + 4 + 5 + 6 +  1 + 2 + 3 + 4 + 5 + 6 +  1

 e |0-----------------------|0-----------------------|0-----------------------|0
 B |1-----------------------|0-----------------------|2-----------------------|2
 G |2-----------------------|0-----------------------|2-----------------------|2
 D |3-----------------------|2-----------------------|2-----------------------|2
 A |3-----------------------|2-----------------------|0-----------------------|0
 E |------------------------|0-----------------------|------------------------|-


    1 + 2 + 3 + 4 + 5 + 6 +  1 + 2 + 3 + 4 + 5 + 6 +  1 + 2 + 3 + 4 + 5 + 6 +  1

                                                       sustain__________________
 e |0-----------------------|0-----------------------|------------------------|-
 B |1-----------------------|0-----------------------|2-----------------------|-
 G |2-----------------------|0-----------------------|3-----------------------|-
 D |3-----------------------|2-----------------------|0-----------------------|-
 A |3-----------------------|2-----------------------|0-----------------------|-
 E |------------------------|0-----------------------|------------------------|-



________________________________________________________________________________
VERSE
                                                                                
                                                                                
    1 + 2 + 3 + 4 + 5 + 6 +  1 + 2 + 3 + 4 + 5 + 6 +  1 + 2 + 3 + 4 + 5 + 6 +  1
1           this  space between        us                   where wingless dream
2           it  seemed so unner--------ving                   still somehow dese
                                                                                
 e |--7---7---7---7---7---7-|--7---7---7---6---6---6-|--5---5---5---5---5---5-|-
 B |--7---7---7---7---7---7-|--7---7---7---7---7---7-|--5---5---5---5---5---5-|-
 G |------------------------|------------------------|------------------------|-
 D |------------------------|------------------------|------------------------|-
 A |6-----------5-----------|4-----------4-----------|4-----------3-----------|2
 E |------------------------|------------------------|------------------------|-
                                                                                
                                                                                
    1 + 2 + 3 + 4 + 5 + 6 +  1 + 2 + 3 + 4 + 5 + 6 +  1 + 2 + 3 + 4 + 5 + 6 +  1
1       will you not bear me wit-------ness               with your back to me  
2       that she could hold my heart so tightly           and still not see me  
                                                                                
 e |--3---3---3---3---3---3-|--3---3---3---2---2---2-|--0---0---0---0---0---0-|-
 B |--3---3---3---3---3---3-|--3---3---3---3---3---3-|--3---3---3---3---3---3-|-
 G |------------------------|------------------------|------------------------|-
 D |------------------------|------------------------|------------------------|-
 A |2-----------1-----------|0-----------0-----------|0-----------0-----------|0
 E |------------------------|------------------------|------------------------|-
                                                                                


________________________________________________________________________________
CHORUS

    1 + 2 + 3 + 4 + 5 + 6 +  1 + 2 + 3 + 4 + 5 + 6 +  1 + 2 + 3 + 4 + 5 + 6 +  1

 e |0-----------------------|0-----------------------|0-----------------------|0
 B |1-----------------------|0-----------------------|2-----------------------|2
 G |2-----------------------|0-----------------------|2-----------------------|2
 D |3-----------------------|2-----------------------|2-----------------------|2
 A |3-----------------------|2-----------------------|0-----------------------|0
 E |------------------------|0-----------------------|------------------------|-


    1 + 2 + 3 + 4 + 5 + 6 +  1 + 2 + 3 + 4 + 5 + 6 +  1 + 2 + 3 + 4 + 5 + 6 +  1

                                                       sustain__________________
 e |0-----------------------|0-----------------------|------------------------|-
 B |1-----------------------|0-----------------------|2-----------------------|-
 G |2-----------------------|0-----------------------|3-----------------------|-
 D |3-----------------------|2-----------------------|0-----------------------|-
 A |3-----------------------|2-----------------------|0-----------------------|-
 E |------------------------|0-----------------------|------------------------|-



________________________________________________________________________________
VERSE
                                                                                
                                                                                
    1 + 2 + 3 + 4 + 5 + 6 +  1 + 2 + 3 + 4 + 5 + 6 +  1 + 2 + 3 + 4 + 5 + 6 +  1
1         oh i sleep just to dream       her              beg the night just to 
2           i know i'll miss her la----ter                wish i could bend my l
                                                                                
 e |--7---7---7---7---7---7-|--7---7---7---6---6---6-|--5---5---5---5---5---5-|-
 B |--7---7---7---7---7---7-|--7---7---7---7---7---7-|--5---5---5---5---5---5-|-
 G |------------------------|------------------------|------------------------|-
 D |------------------------|------------------------|------------------------|-
 A |6-----------5-----------|4-----------4-----------|4-----------3-----------|2
 E |------------------------|------------------------|------------------------|-
                                                                                
                                                                                
    1 + 2 + 3 + 4 + 5 + 6 +  1 + 2 + 3 + 4 + 5 + 6 +  1 + 2 + 3 + 4 + 5 + 6 +  1
1       that my only love should be    her                just to lie in  her   
2           wish i could be her crea---tor                to be the light in her
                                                                                
 e |--3---3---3---3---3---3-|--3---3---3---2---2---2-|--0---0---0---0---0---0-|-
 B |--3---3---3---3---3---3-|--3---3---3---3---3---3-|--3---3---3---3---3---3-|-
 G |------------------------|------------------------|------------------------|-
 D |------------------------|------------------------|------------------------|-
 A |2-----------1-----------|0-----------0-----------|0-----------0-----------|0
 E |------------------------|------------------------|------------------------|-
                                                                                


________________________________________________________________________________
CHORUS
                                                                                
                                                                                
    1 + 2 + 3 + 4 + 5 + 6 +  1 + 2 + 3 + 4 + 5 + 6 +  1 + 2 + 3 + 4 + 5 + 6 +  1
                                                                                
 e |0-----------------------|0-----------------------|0-----------------------|0
 B |1-----------------------|0-----------------------|2-----------------------|2
 G |2-----------------------|0-----------------------|2-----------------------|2
 D |3-----------------------|2-----------------------|2-----------------------|2
 A |3-----------------------|2-----------------------|0-----------------------|0
 E |------------------------|0-----------------------|------------------------|-
                                                                                

    1 + 2 + 3 + 4 + 5 + 6 +  1 + 2 + 3 + 4 + 5 + 6 +

 e |0-----------------------|0-----------------------|
 B |1-----------------------|0-----------------------|
 G |2-----------------------|0-----------------------|
 D |3-----------------------|2-----------------------|
 A |3-----------------------|2-----------------------|
 E |------------------------|0-----------------------|

                                                         _
                                                          |
    1 + 2 + 3 + 4 + 5 + 6 +  1 + 2 + 3 + 4 + 5 + 6 +      |
                                                          |
     sustain________________________________________      |
 e |------------------------|------------------------|    | play
 B |2-----------------------|------------------------|    | 4x
 G |3-----------------------|------------------------|    |
 D |0-----------------------|------------------------|    |
 A |0-----------------------|------------------------|    |
 E |------------------------|------------------------|    |
                                                         _|


     sustain and fade out_______________________________________________________
 e |----------------------------------------------------------------------------
 B |2---------------------------------------------------------------------------
 G |3---------------------------------------------------------------------------
 D |0---------------------------------------------------------------------------
 A |0---------------------------------------------------------------------------
 E |----------------------------------------------------------------------------
                



  ##############################################################################
  # KEY                                                                         
  #                                                                             
  #  time signature = 6/8 (6 beats per measure; each eighth note gets one beat) 
  #                                                                             
  #                                                                             
  #       1   +   2   +   3   +   4   +    1   +     < beat/counting method     
  #  1    lyrics sung first time                                                
  #  2    lyrics sung seccond time (1st repeat)                                 
  #  3    lyrics sung third time (2nd repeat)                                   
  #                                                                             
  #   e ||--------------------------------|--------------------------------|    
  #   B ||--------------------------------|--------------------------------|    
  #   G ||--------- 1 measure ------------|--------- 1 measure ------------|    
  #   D ||--------------------------------|--------------------------------|    
  #   A ||--------------------------------|--------------------------------|    
  #   E ||--------------------------------|--------------------------------|    
  #                                                                             
  #      ^ marks begining of song                                               
  #                                                                             
  #      1   +   2   +   3   +   4   +    1   +   2   +   3   +   4   +         
  #  1   lyrics sung first time                                                 
  #  2   lyrics sung seccond time (1st repeat)                                  
  #  3   lyrics sung third time (2nd repeat)                                    
  #                                                                             
  #   e |--------------------------------|--------------------------------||    
  #   B |--------------------------------|--------------------------------||    
  #   G |--------- 1 measure ------------|--------- 1 measure ------------||    
  #   D |--------------------------------|--------------------------------||    
  #   A |--------------------------------|--------------------------------||    
  #   E |--------------------------------|--------------------------------||    
  #                                                                             
  #   ^ tuning                                           marks end of song ^    
  #                                                                             
  #                                                                             
  ##############################################################################
		   
AcordesyTabs.com © 2008 Acordes y Tablaturas para guitarra. Tabs and Chords for guitar. Aviso Legal - Contacto
El uso de este sitio está sujeto a la aceptación de los términos y condiciones (31 usuarios online)