tablaturas, partituras y acordes para guitarra
Busca por banda/artista:
 
y/o título de la canción:
A B C D E F G H I J K L M N O P Q R S T U V W X Y Z 0 1 2 3 4 5 6 7 8 9 / Top 100 tabs
Categorías
Usuarios
usuario:
Darse de alta
password:
Artistas más visitados
Publicidad
TOP acordes y tablaturas de Dave Matthews Band


Estás en: Inicio > Letra D > Acordes y tablaturas de Dave Matthews Band > So Much To Say Correct
So Much To Say Correct
de Dave Matthews Band
Puntúa este acorde/tab:      
(0.4/5)
Reportar este acorde/tab
  Añadir a tus favoritos
  Imprimir
This is the way Dave plays it. Enjoy!

Intro:
                        
E----5-----------------5-------------------5----------- E
B----5-----------------5-------------------5----------- B
G----5-5/6-------------5-----6-------------5-5/6------- G
D----------7-------------5/7---------------------7----- D 
A------------0------------------0------------------0--- A
E-/5-----------8--/5--------------8--/5------------8 E

Verse:

E----5-----------------------------------5--------------5-----------E
B----5-----------------------------------5--------------5-----------B
G----5-5/6---------------10--------------5-5/6----------5-5/6-------G  Repeat th
D----------7-----5-------7---------9-----------7--------------7-----D  
A--------------3-----------------7--------------0---------------0---A  
E-/5---------1-------/10-----3-5------/5----------8-/5-----------8E

Bridge:

E-5-x-x-x-x-x-5-x-x-x-5-x-x-x-5----------------------------------E
B-5-x-x-x-x-x-5-x-x-x-5-x-x-x-5---7-x-x-x-x-x-7-x-x-x-7-x-x-x-7--B
G-6-x-x-x-x-x-6-x-x-x-6-x-x-x-6---7-x-x-x-x-x-7-x-x-x-7-x-x-x-7--G
D-7-x-x-x-x-x-7-x-x-x-7-x-x-x-7---7-x-x-x-x-x-7-x-x-x-7-x-x-x-7--D
A-7-x-x-x-x-x-7-x-x-x-7-x-x-x-7---5-x-x-x-x-x-5-x-x-x-5-x-x-x-5--A
E-5-x-x-x-x-x-5-x-x-x-5-x-x-x-5----------------------------------E
  1 e + a 2 e + a 3 e + a 4 e + a 1 e + a 2 e + a 3 e + a 4 e + a

E-3-x-x-x-x-x-3-x-x-x-3-x-x-x-3-x-x-x-------------5-x-x-5-x-x-5--E
B-3-x-x-x-x-x-3-x-x-x-3-x-x-x-3-x-x-x-7-x-x-x-7---5-x-x-5-x-x-5--B
G-4-x-x-x-x-x-4-x-x-x-4-x-x-x-4-x-x-x-7-x-x-x-7---6-x-x-6-x-x-6--G
D-5-x-x-x-x-x-5-x-x-x-5-x-x-x-5-x-x-x-7-x-x-x-7---7-x-x-7-x-x-7--D repeat bridge
A-5-x-x-x-x-x-5-x-x-x-5-x-x-x-5-x-x-x-5-x-x-x-5---7-x-x-7-x-x-7--A
E-3-x-x-x-x-x-3-x-x-x-3-x-x-x-3-x-x-x-------------5-x-x-5-x-x-5--E
  1 e + a 2 e + a 3 e + a 4 e + a 1 e + a 2 e + a 3 e + a 4 e + a 

Bonus:(Sax+Violin parts during the "treadin' trotten trails" part)
E--5-----5-3-------E
B--5--------5-3-1--B
G--5-------------2-G
D------------------D
A------------------A
E------------------E

Questions? Comments? My e-mail is Gfrunku@aol.com
Hope you found this informative,stimulating, & enlightening.
		   
AcordesyTabs.com © 2008 Acordes y Tablaturas para guitarra. Tabs and Chords for guitar. Aviso Legal - Contacto
El uso de este sitio está sujeto a la aceptación de los términos y condiciones (21 usuarios online)